PrimaNota.ru - самый крупный в мире бесплатный архив песенных текстов, аккордов, табулатур и нот


Aiden - Believe - текст песни, бас-таба, видео

Регистрация Запомнить меня
Войти через:  Facebook Google Twitter Vk Yandex Mail.ru

Aiden - Believe - текст песни, бас-таба, видео

Печатать
Просмотров: 114
Aiden - Believe

Tabbed by: XxThreeCheersxX
E-mail: burdickash@gmail.com

Tuning: Drop D

Main Riff x 4
G|----7~---------------------3~----------------------------|
D|-5----------------------1------------0~------------------|
A|-----------------------------------------------3--1-0----|
D|--------------0~--------------------------------------5--|

Pre-Chorus
G|-------------------------------------------------------------|
D|-------------------------------------------------------------|
A|-1-1-1-1/8-8-8-8-6-6-6-6-6-6-6-6-6-1-1-1-1/8-8-8-8-6x--------|
D|-------------------------------------------------------------|

Chorus
G|-------------------------------------------------------------------|
D|-------------------------------------------------------------------|
A|-------------------------------------------------------------------| x 2
D|-5-5-5-5-5-5-5-5-3-3-3-3-3-3-3-3-3-1-1-1-1-1-1-1-1-1-1-1-1-1-1-1-1-|

Main Riff x 3

Pre-Chorus 

Chorus II
G|-------------------------------------------------------------------|
D|-------------------------------------------------------------------|
A|-------------------------------------------------------------------| 
D|-5-5-5-5-5-5-5-5-3-3-3-3-3-3-3-3-3-1-1-1-1-1-1-1-1-1-1-1-1-1-1-1-1-|
                                                                          x 2
G|-------------------------------------------------------------------|
D|-------------------------------------------------------------------|
A|-------------------------------------------------------------------| 
D|-5-5-5-5-5-5-5-5-3-3-3-3-3-3-3-3-3-1-1-1-1-1-1-1-1-1-1-1-1-3-3-3-3-|

Bridge
G|-----------------------------------|
D|-----------------------------------|
A|-----------------------------------| x 2
D|-5-5-5x--------1-1-1x----0-0-0x----|

G|-------------------------------------------------|
D|-------------------------------------------------|
A|-------------------------------------------------| x 2
D|-5-5-5x----5-5--5-5--5-5-1-1-1x----0-0--0-0--0-0-|

-brief pause-

G|-----------|
D|-----------|
A|-----------|
D|-1~--------|

Chorus III
G|-------------------------------------------------------------------|
D|-------------------------------------------------------------------|
A|-------------------------------------------------------------------| 
D|-5-5-5-5-5-5-5-5-3-3-3-3-3-3-3-3-3-1-1-1-1-1-1-1-1-1-1-1-1-1-1-1-1-|
                                                                          
G|-------------------------------------------------------------------|
D|-------------------------------------------------------------------|
A|-------------------------------------------------------------------| 
D|-5-5-5-5-5-5-5-5-3-3-3-3-3-3-3-3-3-1-1-1-1-1-1-1-1-1-1-1-1-3-3-3-3-|

G|-------------------------------------------------------------------|
D|-------------------------------------------------------------------|
A|-------------------------------------------------------------------| 
D|-5-5-5-5-5-5-5-5-3-3-3-3-3-3-3-3-3-1-1-1-1-1-1-1-1-1-1-1-1-1-1-1-1-|

G|-------------------------------------------------------------------|
D|-------------------------------------------------------------------|
A|-------------------------------------------------------------------| 
D|-5-5-5-5-5-5-5-5-3-3-3-3-3-3-3-3-3-1~------------------------------|

Happy playing!


| /  slide up
| \  slide down
| h  hammer-on
| p  pull-off
| ~  vibrato
| +  harmonic
| x  Mute note
===============================================================================
Добавлено: 28.07.2015
Другие материалы по этой песне:

Страница создана 30.03.2012
http://primanota.ru/aiden/believe-chords.htm
Привет, Гость.
Предлагаем пройти революционный курс по гитаре.
Подарок от PrimaNota.Ru, забирай!