PrimaNota.ru - самый крупный в мире бесплатный архив песенных текстов, аккордов, табулатур и нот


Ai Otsuka - Girly - аккорды и текст, видео

Регистрация Запомнить меня
Войти через:  Facebook Google Twitter Vk Yandex Mail.ru

Ai Otsuka - Girly - аккорды и текст, видео

Печатать
Просмотров: 157
Уроки эстрадного вокала в Санкт-Петербурге
Girly
Ai Otsuka
Artist: Ai Otsuka
Album: Love Punch
Song: Girly

Intro: (x2)
  F                 Bb               C                 Bb
E------------------------------------------------------------------------|
B-10--10-10--10-10--11--11-11--11-11--13--13-13--13-13--11--11-11--11-11-|
G-10--10-10--10-10--10--10-10--10-10--12--12-12--12-12--10--10-10--10-10-|
D-10--10-10--10-10--12--12-12--12-12--14--14-14--14-14--12--12-12--12-12-|
A------------------------------------------------------------------------|
E------------------------------------------------------------------------|

     F            Dm           Bb     C
Ima atashi anata no soba ni iru koto tashika
    Am              Dm         Bb          C
Sukoshi kokyuu shinikui hibikisou na kokoro no oto
     F            Dm           Bb     C
Ima atashi anata no soba ni iru koto tashika
    Am              Dm       Bb           C
Te ni furesou ni natte tenpatteru kokoro no oto


Bridge
E-----------------------------------------------------------------|
B-----------------------------------------------------------------|
G-----------2-3-5---------------------------2-3-5-----------2-3-5-|
D-2-3-2-3-5-------2-3-2-3-0-------2-3-2-3-5-------2-3-2-3-2-------|
A---------------------------3-1-0---------------------------------|
E-----------------------------------------------------------------|
Kidzuite hoshii kedo baretakunai mujun
Chokkon to itsumo iru no sate dare deshou~?
 Dm              C
Ai rashii egao ageru

F               Bb   C
ashita no koto wa ashita ni kiite
  F             Bb        C
Kyou no koto wa atashi ni makasete
F               Bb     C         Dm
Atashi no hanamichi wo hitasura yuku
                Bb          C          Dm
Sukippu~? sukippu~? sukippu~? lalalalala~?
                Bb                      C
Sukippu~? sukippu~? lalalalala~? it's one girly day?

Intro part (x2)

     F            Dm             Bb    C
Ima atashi anata ni koi ni shite iru no tashika
    Am              Dm         Bb          C
Futakotome ni wa namae subete ni tsuiteru ha-to ma-ku
     F            Dm            Bb    C
Ima atashi anata ni koi ni shiteru no tashika
    Am              Dm         Bb          C
Itsumo ni nai hanashikata subete ni tsuiteru ha-to ma-ku

Bridge part

Mite hoshii kedo miraretakunai mujun
Anata no negao miteru no sate dare deshou~?
 Dm              C
Ai rashii atashi ageru

F               Bb   C
ashita no koto wa yozora no ato
  F             Bb        C
Kyou no koto wa atashi ga yatte miseru
F               Bb     C           Dm
Ganbatte hitotsu otona ni natte waratte
                Bb          C          Dm
Sukippu~? sukippu~? sukippu~? lalalalala~?
                Bb                      C
Sukippu~? sukippu~? lalalalala~? it's one girly day?

Bridge 2# (x8)
E----------------|
B----------------|
G----------------|
D----3--1--------|
A----------3-1---|
E-1------------4-|

F               Bb   C
ashita no koto wa ashita ni kiite
  F             Bb        C
Kyou no koto wa atashi ni makasete
F               Bb     C         Dm
Atashi no hanamichi wo hitasura yuku
                Bb          C          Dm
Sukippu~? sukippu~? sukippu~? lalalalala~?
                Bb                      C
Sukippu~? sukippu~? lalalalala~? it's one girly day?

F               Bb   C
ashita no koto wa yozora no ato
  F             Bb        C
Kyou no koto wa atashi ga yatte miseru
F               Bb     C           Dm
Ganbatte hitotsu otona ni natte waratte
                Bb          C          Dm
Sukippu~? sukippu~? sukippu~? lalalalala~?
                Bb                      C
Sukippu~? sukippu~? lalalalala~? it's one girly day?
Добавлено: 27.10.2013
Другие материалы по этой песне:
  • Аккорды и текст

Страница создана 01.04.2012
http://primanota.ru/ai-otsuka/girly-chords.htm
Привет, Гость.
Предлагаем пройти революционный курс по гитаре.
Подарок от PrimaNota.Ru, забирай!