PrimaNota.ru - самый крупный в мире бесплатный архив песенных текстов, аккордов, табулатур и нот


Ahab - Like Roses - аккорды и текст, видео

Регистрация Запомнить меня
Войти через:  Facebook Google Twitter Vk Yandex Mail.ru

Ahab - Like Roses - аккорды и текст, видео

Печатать
Просмотров: 100
Like Roses
Ahab
Like Roses by Ahab


Intro: x0xxxx
        H
       x2xxxx
       xx0xxx X4

[Verse]

Em                              D             G     
Somewhere there's a place where the apples line the ground
Em         D               G
Like roses, just like roses
Em                              D                      G
Playing on a tree where the rope swing's tied around
Em                D                    G 
Like most kids, just like most kids

[Pre-chorus]

Em                     D                    G
Ordinary people have the fun and come down
Em                               D                G
I just want to find a way to never hit the ground

[Chorus]

C                G    D
I'm older than I look, younger than I feel
C                   G      D
I'm soft beneath the surface
   C         G           D
My mind is a boat and I'm stranded in a storm
    C                 G    D
I'm still beneath the surface
Em
Where I belong (where I belong)

Where I belong (where I belong)
                          G
Where I belong (where I belong....ong)

[Solo]

Em D G
Em D G

e|-----------------------------------------------------------------------------|
B|-----------------------------------------------------------------------------|
G|---2h4----2----0------------2h4----2----0--------2h4--2--0------2h4--2--0----|
D|-------------------2------------------------0--------------2---------------0-|
A|-----------------------------------------------------------------------------|
E|-----------------------------------------------------------------------------|

e|-----------------------------------------------------------------------------|
B|-----------------------------------------------------------------------------|
G|--------0h2---0--------------------2h4----2----0-----------------------------|
D|----0h2-----------2----4----5------------------------------------------------|
A|-----------------------------------------------------------------------------|
E|-----------------------------------------------------------------------------|



[Verse]

Em                           D                G     
Somewhere there's a place I can feel but I can't see
Em         D               G
Like heaven, just like heaven
Em                                 D                   G
I keep running to the light my legs won't carry me
Em            D               G
Keep burning, just keep burning

[Pre-chorus]

Em                     D                    G
Ordinary people have the fun and come down
Em                               D                G
I just want to find a way to never hit the ground


[Chorus]

C                G    D
I'm older than I look, younger than I feel
C                   G      D
I'm soft beneath the surface
   C         G           D
My mind is a boat and I'm stranded in a storm
    C                 G    D
I'm still beneath the surface
Em                       D     G
Where I belong (where I belong)
 D     Em
Where I belong (where I belong)
                        D     G
Where I belong (where I belong....ong)

[Bridge]

C       G              D
I don't know if what I see is heaven or hell in front of me
C         G                 D
Shards of light like dancing glass for all the time that's come to pass
C        G              D
Counting keys upon the floor, last life shut forever more
C       G              D                                       C    G    D
I don't know if what I see is heaven or hell in front of me...ee...ee
                          C       G     D                                   C    G    D
I don't know if what I see....ee....ee is heaven or hell in front of me...ee...ee 
                          C       G     D                                   C    G    D
I don't know if what I see....ee....ee is heaven or hell in front of me...ee...ee 

Добавлено: 11.06.2013
Другие материалы по этой песне:
  • Аккорды и текст

Страница создана 11.06.2013
http://primanota.ru/ahab/like-roses-chords.htm
Привет, Гость.
Предлагаем пройти революционный курс по гитаре.
Подарок от PrimaNota.Ru, забирай!