PrimaNota.ru - самый крупный в мире бесплатный архив песенных текстов, аккордов, табулатур и нот


Ahab - Aeons Elapse - таба, видео

Регистрация Запомнить меня
Войти через:  Facebook Google Twitter Vk Yandex Mail.ru

Ahab - Aeons Elapse - таба, видео

Печатать
Просмотров: 25
Авторы музыки: Ahab, Daniel Droste
Авторы текста: Christian Hector
Intro - Clean - Play 2 times

C ------------------------------------------------------------------------------------2--------------0--------|
G -------1---------1-------1-------0-3--------0-3--------1----------1-------1-------0---3----------4---4------|
D#---------0---------0-------0-----------------------------0----------0-------0------------------5-------5----|
A#-----2---------2-------2-------2----------2----------2----------2-------2-------2------------6-----------6--|
F ------------------------------------------------------------------------------------------------------------|
C ---0---------0-------0-------0----------0----------0----------0-------0-------0-----------------------------|

C ------------------------------------------------------------------------------------------------------------|
G ------------------------------------------------------------------------------------------------------------|
D#---------4---------4-------4------------------0-------0----------4----------4-------4-----7-----------------|
A#-------5---------5-------5-------5/7--------7-------7----------5----------5-------5-----7-------7-----5-----|
F -----7---------7-------7-------7----------5-------5----------7----------7-------7-----5-------7-----6-------|
C ---0---------0-------0-------0----------0-------0----------0----------0-------0-------------5-----4---------|

Verse - Distortion - Play 4 times

C -----------------------------------------------------------------------0-------------|
G ---------------------------------------------------------------------4---4-----------|
D#-------------------------------------------------------------------5-------5---------|
A#--------5------5----5----4-4-------------5------5----5----4-4----6-----------6-------|
F ---2----3------3----3----2-2-6----2-2----3------3----3----2-2-6----------------------|
C ---0---------0----0----0-----4----0-0---------0----0----0-----4----------------------|

C -----------------------------------------------------------------------------|
G -----------------------------------------------------------------------------|
D#-----------------------------------------------------------------------------|
A#--------5------5----5----9p7-5h7-7-----------5------5----5----7--------------|
F ---2----5------5----5----5---5---5----2-2----5------5----5----5-7-6----------|
C ---0---------0----0----0--------------0-0---------0----0----0---5-4----------|

Clean Interlude

C -----------------------------------------------------------------------------|
G ---7-7-7-7-7-7-5-4-4h5p4---4-4-5-7-9-5-4-4h5p4-------------------------------|
D#-------------------------6---------------------6-5---------------------------|
A#-----------------------------------------------------------------------------|
F -----------------------------------------------------------------------------|
C -----------------------------------------------------------------------------|

C ---------------------------------------------------------------------------------------------------|
G ---9-10-10-10p9-9---9-10-13-13h14p13----13-14-/18-18-17-14-14h15-15-14-----------------------------|
D#---9----------------9----------------14--------------------------------15-15h18p15-14-\12-/15-14---|
A#---------------------------------------------------------------------------------------------------|
F ---------------------------------------------------------------------------------------------------|
C ---------------------------------------------------------------------------------------------------|

Finger pick
C ------14-------12----12--12\11---/12--11--9---8---5---4-------8---9---12-------|
G -------------------------------------------------------------------------------|
D#---11-------11-------11--11------/9---8---6---5---2---1------------------------|
A#-------------------------------------------------------------------------------|
F -------------------------------------------------------------------------------|
C -------------------------------------------------------------------------------|

Rhythm plays this underneath

C ----------0------------|
G --------4---4----------|
D#------5-------5--------|
A#----6-----------6------|
F -----------------------|
C -----------------------|

Chorus - Play 4 times

C -----------------------------------------------------------------------------|
G -----------------------------------------------------------------------------|
D#-----------------------------------------------------------------------------|
A#---------------------------------------------4---4/6---6---------------------|
F ---6------6------8-----\6------2------2------2---2/4---4---------------------|
C ---4------4------6-----\4------0------0--------------------------------------|

Bridge - Play 10 times

C -----------------------------------------------0-----------------------------|
G -----------------------------------------------0-----------------------------|
D#-----------------------------------------------------------------------------|
A#-----------------------------------------------------------------------------|
F ---6--6/7--3--6--6/7--10\7--6--6/7--3--6--6\3--------------------------------|
C ---4--4/5--1--4--4/5---8\5--4--4/5--1--4--4\1--------------------------------|


Play Chorus 4 times then Rhythm plays chorus for rest of track under solo


Solo

C --------------------------------------------------------------------------------------------|
G ---/14-h16-14h16p14-------------------------------------------------------------------------|
D#--------------------17-13-12-12----12h13-13h15-15b16-11--------------------------------4h6--|
A#--------------------------------13----------------------11-9-8b9r8-6-6h8p6\4-6-6-4-4h6------|
F --------------------------------------------------------------------------------------------|
C --------------------------------------------------------------------------------------------|

C ----------------11-13-13-11h13r11-----------11-11-14-14-14---14-------------------------------------------|
G ---9-9-11-11/13-------------------11-11h13-----------------14--14-11h12p11\9-11p9\7-9-11b12-12r11p9-11----|
D#----------------------------------------------------------------------------------------------------------|
A#----------------------------------------------------------------------------------------------------------|
F ----------------------------------------------------------------------------------------------------------|
C ----------------------------------------------------------------------------------------------------------|

C ------------7-11-11b12r11-7----------------7-11-11b12r11-7-------------------------|
G ----------9-----------------9------------9-----------------9-----------------------|
D#--------8---------------------8--------8---------------------8---------------------|
A#------9-------------------------9----9-------------------------9-------------------|
F ---11-----------------------------11-----------------------------11----------------|
C -----------------------------------------------------------------------------------|

C -------------8-11-11b12r11-8------------------8-11-11b12r11-8----------------------|
G -----------9-----------------9--------------9-----------------9--------------------|
D#---------8---------------------8----------8---------------------8------------------|
A#------10-------------------------10----10-------------------------10---------------|
F ---11-------------------------------11-------------------------------11------------|
C -----------------------------------------------------------------------------------|
Добавлено: 29.05.2016
Другие материалы по этой песне:
  • Аккорды и текст

Страница создана 29.05.2016
http://primanota.ru/ahab/aeons-elapse-chords.htm
Привет, Гость.
Предлагаем пройти революционный курс по гитаре.
Подарок от PrimaNota.Ru, забирай!