PrimaNota.ru - самый крупный в мире бесплатный архив песенных текстов, аккордов, табулатур и нот


Барриос Мангоре Агустин - Preludio In Em - таба, видео

Регистрация Запомнить меня
Войти через:  Facebook Google Twitter Vk Yandex Mail.ru

Барриос Мангоре Агустин - Preludio In Em - таба, видео

Печатать
Просмотров: 216
PRELUDIO in E Minor (Agustin BARRIOS MANGORE)

Tab by Andrй Torre - 26/10/2003
A short piece (Play it fast : not very easy) but beautiful
 

ALLEGRO
            |C10---- |C8----  |C7-----  |C5----  |C3----
   4  3  2  2  1  1  1  1  2  1  1  1   1  1  1  2  1  1   3  1  2
E|12-------------10-|8--------------7--|5--------------3--|2--------------0--|
B|---12-------10----|---8--------7-----|---5--------3-----|---1--------0-----|
G|------12-11-------|------9--7--------|------5--4--------|------2--0--------|
D|------------------|------------------|------------------|------------------|
A|------------------|------------------|------------------|------------------|
E|------------------|------------------|------------------|------------------|

  2  1  3  2     1   3  2  4  4  2  3         2  4  2  3   1  1  2      2  1
E|------------------|------------------|------------------|------------------|
B|3--------------1--|------------------|------------------|------------------|
G|---2--------0-----|4--------------2--|0-----------------|------------------|
D|------4--2--------|---4--------2-----|---0-----------4--|2-----------------|
A|------------------|------5--3--------|------2-----3-----|---2------------2-|
E|------------------|------------------|---------5--------|------3--0-h-3----|

                     1
  1  3  4  1  3  1   2  3     3  4  3   1            2  1   4 1  4   3  4  1
E|------------------|------------------|----------0-----7-|12-7------------7-|
B|------------------|------------------|------0------8----|------9------9----|
G|---------2--4--2--|0--2--0-----------|---0--------------|----------9-------|
D|2--4--5-----------|1--------4--5--4--|2-----------------|------------------|
A|------------------|2-----------------|------------------|------------------|
E|------------------|------------------|------------------|------------------|


  1  4 2   3   2  4  1  3  2   4  1  3  4  2      4  1  2  4  1  2   3 1  3
E|8-----------------|8-----------------|------0------7--8-|------------------|
B|--10-----------10-|---9--------------|----------10------|10p7--------------|
G|-----9-------9----|------9-----------|------------------|------8-----------|
D|---------10-------|----------12p9----|---10-------------|----------9p7-----|
A|------------------|---------------11h|12----------------|---------------9h-|
E|------------------|------------------|------------------|------------------|

 
  4         2  1  4  4  1  2  4  1  3   4         2  1  3  2     1   3  2  4
E|------0------7-10-|5p-2--------------|------0-----------|------------------|
B|---0------8-------|------3-----------|---0------3-------|------1-----------|
G|------------------|---------5p-2-----|-------------2----|---0------4-------|
D|------------------|---------------4h-|5---------------4-|2------------4----|
A|10----------------|------------------|------------------|----------------5-|
E|------------------|------------------|------------------|------------------|


  3  1  1  2  1  3   2  1        1      2  1     2  3               3
E|------------------|------------------|------------------|---------------0--|
B|------------------|------0--------0--|------0--------0--|------0-----0-----|
G|------2--------3--|------------------|------------2-----|---0--------------|
D|---2--------2-----|---1--------1-----|---2--------------|------------------|
A|4--------3--------|2--------0--------|------------------|------------------|
E|------------------|------------------|3--------2--------|0--------3--------|


     1     1  1  4   2        2  1  1   3  2  1  1  3  4   2           1
E|------0-----------|------0--------3--|------3--------2--|------0--------0--|
B|---1-----------4--|------------------|------------------|------------------|
G|------------2-----|---0--------3-----|---4--------2-----|---0--------1-----|
D|------------------|------------------|---------1--------|2--------0--------|
A|0--------2--------|3--------4--------|5-----------------|------------------|
E|------------------|------------------|------------------|------------------|

                                                             4
  2  1     2  4         1     3         1  2  4  1  1  4     3
E|------0--------0--|------0--------0--|------------------|-----------------||
B|------------3-----|---1--------------|------5--------4--|--5--------------||
G|---2--------------|------------0-----|---3--------2-----|-----------------||
D|------------------|------------------|------------------|--5--------------||
A|3--------2--------|0-----------------|---------2--------|-----------------||
E|------------------|---------3--------|2-----------------|--0--------------||
Добавлено: 10.04.2012
Другие материалы по этой песне:

Страница создана 10.04.2012
http://primanota.ru/agustin-barrios-mangore/preludio-in-em-chords.htm
Привет, Гость.
Предлагаем пройти революционный курс по гитаре.
Подарок от PrimaNota.Ru, забирай!