PrimaNota.ru - самый крупный в мире бесплатный архив песенных текстов, аккордов, табулатур и нот


Барриос Мангоре Агустин - Junto A Tu Corazon - таба, видео

Регистрация Запомнить меня
Войти через:  Facebook Google Twitter Vk Yandex Mail.ru

Барриос Мангоре Агустин - Junto A Tu Corazon - таба, видео

Печатать
Просмотров: 136
Авторы музыки: Agustín Barrios Mangoré

Junto a tu corazon (Agustin BARRIOS MANGORE)



E|--12-14---12---12--|-12--0--2-|-0--0--0-|---------|---------|---------|
B|--15-15---15---15--|-15--3--3-|-3--3--3-|---------|---------|---------|
G|--13-14---13---13--|-13--1--2-|-1--1--1-|---------|---------|---------|
D|-------------------|----------|---------|----0--0-|-0--0--0-|========-|
A|-------------------|----------|---------|----7--9-|-7--7--7-|========-|
E|-------------------|----------|---------|----4--4-|-4--4--4-|========-|
     1                        3                3  4
     4                    4   4                1  1
     2                    1   2

E|---------|---------|----0--0-|----0--0-|---------|---------|----0--0-|
B|----2--2-|----2--2-|----3--3-|----3--3-|----2--2-|---------|----3--3-|
G|----2--2-|----2--2-|-1-------|---------|----2--2-|---------|-1-------|
D|-2-------|-4-------|---------|---------|-2-------|-4--7--4-|---------|
A|-0-------|-0-------|-2-------|---------|-0-------|---------|-2-------|
E|---------|---------|---------|-0-------|---------|-0-----0-|---------|
                                                     1  4


E|----0----|----5--5-|----4--4-|----2--2-|----2--2-|----5--5-|---------|
B|----3----|----5--5-|----6--6-|----2--2-|----2--2-|----7--7-|----4--4-|
G|---------|-6-------|-4-------|-2-------|-3-------|-4-------|----2--2-|
D|---------|---------|---------|-4-------|-4-------|---------|-4-------|
A|---------|-0-------|-4-------|---------|---------|-6-------|-2-------|
E|-0-----0-|---------|---------|---------|---------|---------|---------|



E|---------|-0-------|---------|---------|----0--0-|----0--0-|---------|
B|----9--9-|-3-------|----2--2-|----2--2-|----3--3-|----3--3-|----2--2-|
G|----7--7-|-4-------|----2--2-|----2--2-|-1-------|---------|----2--2-|
D|-9-------|-6--4--3-|-2-------|-4-------|---------|---------|-2-------|
A|---------|---------|-0-------|-0-------|-2-------|---------|-0-------|
E|-0-------|---------|---------|---------|---------|-0-----.-|---------|


E|---------|----0--0-|----0----|----5--5-|----4--4-|----2--2-|----2--2-|
B|---------|----3--3-|----3----|----5--5-|----6--6-|----2--2-|----3--3-|
G|---------|-1-------|---------|-6-------|-4-------|-2-------|-4-------|
D|-4--7--4-|---------|---------|---------|---------|-4-------|-0-------|
A|---------|-2-------|---------|-0-------|-4-------|---------|---------|
E|-0-----0-|---------|-0-----0-|---------|---------|---------|---------|


E|----0--0-|----0--0-|-0-------|---------||-----9------|-9-------9--|
B|----2--2-|----3--3-|-2-------|---------||-5------5---|----5-------|
G|-2-------|-1-------|-2-------|---------||---6------6-|------6-----|
D|-2-------|---------|----2----|---------||-----7--7---|----7----7--|
A|---------|---------|-0-----4-|----0----||-0----------|------------|
E|---------|-0-----.-|-------.-|---------||------------|-0----------|


E|-----9------|-9-------9--|-----9------|-9-------9--|-----7------|-7-------7-|
B|-7------7---|----7-------|-5------5---|----5-------|-5------5---|----5------|
G|---7------7-|------7-----|---7------7-|------7-----|---6------6-|------6----|
D|------------|---------9--|-----6--6---|----6----6--|-----7--7---|----7----7-|
A|-----9--9---|----9-------|------------|------------|-0----------|-0---------|
E|-7----------|-7----------|-0----------|-0----------|------------|-----------|


E|-----5------|-5-------5--|-----4------|-4-------5--|-----4------|-4-------4-|
B|-4------4---|----4-------|-5------5---|----5-------|-4------4---|----7------|
G|---5------5-|------5-----|---6------6-|------6-----|---5------5-|------5----|
D|-----4--4---|----4----4--|-----6--6---|----6----6--|-----6--6---|----6----6-|
A|------------|------------|------------|------------|-6----------|-----------|
E|-4----------|-4----------|-4----------|-4----------|------------|-4---------|


E|-----4------|-4-------4--|-----9------|-9-------9--|-----9------|-9-------9-|
B|-5------5---|----5-------|-5------5---|----5-------|-7------7---|----7------|
G|---6------6-|------7-----|---6------6-|------6-----|---7------7-|------7----|
D|-----6--6---|----6----6--|-----7--7---|----7----7--|-----9--9---|----9----9-|
A|-4----------|------------|-0----------|------------|------------|-----------|
E|------------|-0----------|------------|-0----------|-7----------|-7---------|


E|-----9------|-9-------9--|-----7------|-7-------7-|-----5------|-5-------5-|
B|-5------5---|----5-------|-5------5---|----5------|-4------4---|----4------|
G|---7------7-|------7-----|---6------6-|------6----|---2------2-|------2----|
D|-----6--6---|----6----6--|-----7--7---|----7----7-|-----4--4---|----4----4-|
A|------------|------------|-0----------|-0---------|-2----------|-2---------|
E|-0----------|-0----------|------------|-----------|------------|-----------|


E|-----4------|-4-------2-|-----2------|-0-------0-|---------|---------|
B|-2------2---|----2------|-0------0---|----3------|---------|---------|
G|---2------2-|------2----|---1------1-|------1----|-2-------|---------|
D|-----2--2---|----2----2-|-----0--0---|----2----2-|----2----|---------|
A|------------|-4---------|------------|-----------|-0-----4-|---------|
E|-0----------|-----------|-0----------|-0---------|---------|-0--2--4-|


E|---------|---------|----0--0-|----0--0-|---------|---------|----0--0-|
B|----2--2-|----2--2-|----3--3-|----3--3-|----2--2-|---------|----3--3-|
G|----2--2-|----2--2-|-1-------|---------|----2--2-|---------|-1-------|
D|-2-------|-4-------|---------|---------|-2-------|-4--7--4-|---------|
A|-0-------|---------|-2-------|---------|-0-------|---------|-2-------|
E|---------|-0-------|---------|-0-----.-|---------|-0-----0-|---------|



E|---0---|---5--5-|---4--4-|---2--2-|---2--2-|---0--0-|----0--0-|-0-------|---|
B|---3---|---5--5-|---6--6-|---2--2-|---3--3-|---2--2-|----3--3-|-2-------|---|
G|-------|-6------|-4------|-2------|-4------|-2------|-1-------|-2-------|---|
D|-------|--------|--------|-4------|-0------|-2------|---------|----2----|---|
A|-------|-0------|-4------|--------|--------|--------|---------|-0-----4-|-0-|
E|-0---0-|--------|--------|--------|--------|--------|-0-----.-|-------.-|---|


E|-14----12-|---9---7-|10---9-|---9---7-|10---9-|---7---6-|-9---7-|---5-----|
B|-10----10-|---8---8-|-7---7-|---7---7-|-8---8-|---8---8-|-7---7-|---4---4-|
G|-12-12-12-|---6-6---|-7-7-7-|---7-7---|-7-9-7-|---6-6---|-7-7-7-|---------|
D|-11-11-11-|---------|-0-----|---------|-----9-|---------|-0-----|---4-4---|
A|--0-------|-0-------|-------|-9-------|-------|-0-------|-------|---------|
E|--0-------|---------|-------|---------|-0-----|---------|-------|-2-------|


E|-2---0-|---0-----|-----2-|-2-5-6-|-7---5-|-----3-|-2h3p2-----|-----------|
B|---3-3-|-------0-|-3---3-|---3---|---6-6-|---5---|-------5-3-|-2h3p2-4---|
G|---1-1-|---7-7---|---2-2-|---2---|---8-8-|---6---|-----------|---------2-|
D|-------|---6-6---|---4-4-|---4---|---5-5-|-------|-----------|-----------|
A|-------|---------|-------|-0-----|-0-----|-4---0-|-----------|-----------|
E|-0-----|-4-------|-0-----|-------|-------|-------|-----------|-----------|


E|-14----12-|---9---7-|10---9-|---9---7-|10---9-|---7---6-|-9---7-|---5-----|
B|-10----10-|---8---8-|-7---7-|---7---7-|-8---8-|---8---8-|-7---7-|---4---4-|
G|-12-12-12-|---6-6---|-7-7-7-|---7-7---|-7-9-7-|---6-6---|-7-7-7-|---------|
D|-11-11-11-|---------|-0-----|---------|-----9-|---------|-0-----|---4-4---|
A|--0-------|-0-------|-------|-9-------|-------|-0-------|-------|---------|
E|--0-------|---------|-------|---------|-0-----|---------|-------|-2-------|


E|-2---0-|---0-----|-----2-|---5-6-|-7---5-|-------|-------|-------|-2-----|
B|---3-3-|-------0-|-3---3-|---3---|---5-5-|---5-7-|-3-----|-3-5-6-|---3-3-|
G|---1-1-|---7-7---|---2-2-|---2---|---6-6-|---6-6-|---2-2-|-2-----|---4-4-|
D|-------|---6-6---|---4-4-|---4---|---5-5-|---5-5-|---4-4-|-4-----|-------|
A|-------|---------|-------|-0-----|-0-----|-0-----|-5-----|-------|-2-----|
E|-0-----|-4-------|-0-----|-------|-------|-------|-------|-------|-------|


E|-2-----|-2-----|-2-3-5-3-2---|-2-----|-2-----|-------|---2-5-3-|-2-----|
B|---3-3-|---2-2-|-----------6-|---3-3-|---4-4-|-5-----|-5-------|---3-3-|
G|---4-4-|---3-3-|-------------|---4-4-|---2-2-|---4-4-|---------|---4-4-|
D|-------|---4-4-|-------------|-------|-------|---5-5-|---------|-------|
A|-------|-4-----|-------------|-2-----|-------|-------|---------|-------|
E|-2-----|-------|-2-----------|-------|-2-----|-3-----|-0-------|-2-----|


E|-------|-------|-------|-------|-------|-------|---------|-14----12|---9---7|
B|-5-----|-3-----|-3-5-6-|-3-----|-2-----|-0-----|---------|-10----10|---8---8|
G|---3-3-|---4-4-|-4-----|---4-4-|---0-0-|-------|---------|-12-12-12|---6-6--|
D|---4-4-|---5-5-|-5-----|---4-4-|---4-4-|---4-4-|---------|-11-11-11|--------|
A|-------|-------|-------|-------|---4-4-|---5-5-|-0-4p2-0-|--0------|-0------|
E|-2-----|-3-----|-3-----|-2-----|-2-----|-7-----|---------|--0------|--------|


E|10---9-|---9---7-|10---9-|---7---6-|-9---7-|---5-----|-2---0-|---0-----|
B|-7---7-|---7---7-|-8---8-|---8---8-|-7---7-|---4---4-|---3-3-|-------0-|
G|-7-7-7-|---7-7---|-7-9-7-|---6-6---|-7-7-7-|---------|---1-1-|---7-7---|
D|-0-----|---------|-----9-|---------|-0-----|---4-4---|-------|---6-6---|
A|-------|-9-------|-------|-0-------|-------|---------|-------|---------|
E|-------|---------|-0-----|---------|-------|-2-------|-0-----|-4-------|


E|--12-12-12-12-|-12-12-12-|-12-12-12-|-12------|---|-----9------|-9-------9--|
B|--------------|-12-12-12-|-15-14-13-|-12------|---|-5------5---|----5-------|
G|--------------|-13-13-13-|-16-15-14-|-13------|---|---6------6-|------6-----|
D|--------------|----------|----------|----14/2-|---|-----7--7---|----7----7--|
A|--------------|----------|----------|---------|---|-0----------|------------|
E|--------------|----------|----------|---------|-0-|------------|-0----------|


E|-----9------|-9-------9--|-----9------|-9-------9--|-----9------|-7-------7-|
B|-7------7---|----7-------|-5------5---|----5-------|-5------5---|----5------|
G|---7------7-|------7-----|---7------7-|------7-----|---6------6-|------6----|
D|------------|---------9--|-----6--6---|----6----6--|-----7--7---|----7----7-|
A|-----9--9---|----9-------|------------|------------|-0----------|-0---------|
E|-7----------|-7----------|-0----------|-0----------|------------|-----------|


E|-----5------|-5-------5--|-----4------|-4-------4--|-----4------|-4-------4-|
B|-4------4---|----4-------|-5------5---|----5-------|-4------4---|----7------|
G|---5------5-|------5-----|---6------6-|------6-----|---5------5-|------5----|
D|-----4--4---|----4----4--|-----6--6---|----6----6--|-----6--6---|----6----6-|
A|------------|------------|------------|------------|-6----------|-----------|
E|-4----------|-4----------|-4----------|-4----------|------------|-4---------|


E|-----4------|-4-------4--|-----9------|-9-------9--|-----9------|-9-------9-|
B|-5------5---|----5-------|-5------5---|----5-------|-7------7---|----7------|
G|---6------6-|------7-----|---6------6-|------6-----|---7------7-|------7----|
D|-----6--6---|----6----6--|-----7--7---|----7----7--|-----9--9---|----9----9-|
A|-4----------|------------|-0----------|------------|------------|-----------|
E|------------|-0----------|------------|-0----------|-7----------|-7---------|


E|-----9------|-9-------9--|-----7------|-7-------7-|-----5------|-5-------5-|
B|-5------5---|----5-------|-5------5---|----5------|-4------4---|----4------|
G|---7------7-|------7-----|---6------6-|------6----|---2------2-|------2----|
D|-----6--6---|----6----6--|-----7--7---|----7----7-|-----4--4---|----4----4-|
A|------------|------------|-0----------|-0---------|-2----------|-2---------|
E|-0----------|-0----------|------------|-----------|------------|-----------|


E|-----4------|-4-------2-|-----2------|-0-------0-|---------|---------|
B|-2------2---|----2------|-0------0---|----3------|---------|---------|
G|---2------2-|------2----|---1------1-|------1----|-2-------|---------|
D|-----2--2---|----2----2-|-----0--0---|----2----2-|----2----|---------|
A|------------|-4---------|------------|-----------|-0-----4-|---------|
E|-0----------|-----------|-0----------|-0---------|---------|-2--2--4-|


Da capo to X to fine to Y

E|-------------9-10-11-|-12------16-|-17--------|-------||
B|-----9-10-12---------|---------15-|-14--------|-------||
G|-2-------------------|---------16-|-17-----1--|----2--||
D|---------------------|------------|--------0--|----2--||
A|-0-------------------|------------|--0-----2--|----4--||
E|---0-----------------|----------0-|--------0--|----5--||

Добавлено: 17.06.2012
Другие материалы по этой песне:
  • Аккорды и текст

Страница создана 17.06.2012
http://primanota.ru/agustin-barrios-mangore/junto-a-tu-corazon-chords.htm
Привет, Гость.
Предлагаем пройти революционный курс по гитаре.
Подарок от PrimaNota.Ru, забирай!