PrimaNota.ru - самый крупный в мире бесплатный архив песенных текстов, аккордов, табулатур и нот


Барриос Мангоре Агустин - Estudio De Concierto - таба, видео

Регистрация Запомнить меня
Войти через:  Facebook Google Twitter Vk Yandex Mail.ru

Барриос Мангоре Агустин - Estudio De Concierto - таба, видео

Печатать
Просмотров: 126
Авторы музыки: Agustín Barrios Mangoré

Estudio de Concierto

                                                 Agustin Barrios Mangore


E||----------------------------------|----------------------------------|
B||------------------2-----------2---|--3-0-----2-------0---------------|
G||--2-----------2-----2-------2---2-|------1-----2-------1-----------1-|
D||----2-------2---2-----2---2-------|--------2-----2-------2-0---0-2---|
A||------4-0-4-------------4---------|----------------4---------2-------|
E||----------------------------------|----------------------------------|


----------------------------------|--0-------------------------------|
--0-------2-------3-0-------0-3-0-|----2-----3-0-----2-----------2---|
----1-------3---------------------|------3-------------3-------3---3-|
------2-0-----4-------4---4-------|--------4-----4-------4---4-------|
----------------4-------2---------|----------------2-----------------|
----------------------------------|------------------------2---------|


----------0-------5-0-------0-5-0-|--4-0-----2-------0-----------0---|
--3-0-------0---------------------|------------4-------2-------2---2-|
--------------1-------2---2-------|------2-------2-------1---1-------|
------4---------0-----------------|----------------------------------|
--------2---------------4---------|--------4-------3-----------------|
----------------------------------|------------------------4---------|


----------------------------------|----------------------------------|
--3-----------3---2-----------2---|--0-----------0-------------------|
----3-------3---3---2-------2---2-|----1-------1---1-2-----------2---|
------2---2-----------1---1-------|------0---0---------2-------2---2-|
----------------------------------|----------------------4-0-4-------|
--------2---------------2---------|--------0-------------------------|


----------------------------------|----------------------------------|
------------------2-----------2---|--3-0-----2-------0---------------|
--2-----------2-----2-------2---2-|------1-----2-------1-----------1-|
----2-------2---2-----2---2-------|--------2-----2-------2-0---0-2---|
------4-0-4-------------4---------|----------------4---------2-------|
----------------------------------|----------------------------------|


----------------------------------|--0-------------------------------|
--0-------2-------3-0-------0-3-0-|----2-----3-0-----2-----------2---|
----1-------3---------------------|------3-------------3-------3---3-|
------2-0-----4-------4---4-------|--------4-----4-------4---4-------|
----------------4-------2---------|----------------2-----------------|
----------------------------------|------------------------2---------|


----------0-------5-0-------0-5-0-|--4-0-----2-------0-----------0---|
--3-0-------0---------------------|------------4-------2-------2---2-|
--------------1-------2---2-------|------2-------2-------1---1-------|
------4---------0-----------------|----------------------------------|
--------2---------------4---------|--------4-------3-----------------|
----------------------------------|------------------------4---------|


----------------------------------|----------------------------------|
--3-----------3---2-----------2---|--0-----------0-------------------|
----3-------3---3---2-------2---2-|----1-------1---1-2-----------2---|
------2---2-----------1---1-------|------0---0---------2-------2---2-|
----------------------------------|----------------------4-0-4-------|
--------2---------------2---------|--------0-------------------------|


--0-------------------------------|----------4-------0-----------0---|
--------------4---2-----------2---|--4---------4-------2-------2---2-|
----1-------1---1---1-------1---1-|----1---------1-------1---1-------|
------1---1-----------2---2-------|------1---------1-----------------|
--------3---------------4---------|--------3---------------4---------|
----------------------------------|----------------------------------|


----------------------------------|----------2-----------------------|
--3-----------2---0-----------0---|--2---------2-----3-0-------0-3-0-|
----------------------------------|----------------------------------|
----4-------4---4---4-0---0-4---4-|----4---------4-------4---4-------|
------4-1-4-------------2---------|------4-1-------4-------2---------|
----------------------------------|----------------------------------|


--0-----------0---0-----------0---|--2-----------2---2-----------2---|
----1-------1-------2-------2---2-|----3-------3---3---3-0---0-3---3-|
------1---1-----1-----2---2-------|------3---3-----------------------|
----------------------------------|----------------------------------|
------------------------0---------|------------------------2---------|
--------0-------------------------|--------2-------------------------|


--2-----------2---0-----------0---|----------------------------------|
----3-0---0-3---3---2-------2---2-|--3-0-------0-3-0-2-----------2---|
----------------------2---2-------|------1---1---------2-------2---2-|
--------0---------------2---------|--------3-------------4---4-------|
----------------------------------|----------------------------------|
----------------------------------|------------------------2---------|


--------------------------------0-|----------------------------------|
--0-----------0---2-------2-3-4---|--2-----------0-----------------2-|
----2-------2---2---2---2---------|----2-------1---1-2-----------2---|
------4-0-3-----------2-----------|------1---0---------2-------2-----|
----------------------------------|----------------------4-0-4-------|
----------------------------------|--------2-------------------------|


----------4-0-------0-4-0-4-|--0-------0-4-0-2-------4-0-----5-|
--------------0---0---------|----0---0---------4---------------|
--2-------------------------|--------------------2-------2-----|
----------------2-----------|----------------------------------|
----------------------------|------2---------------2-------4---|
----------------------------|----------------------------------|


--2-------2-5-2-4-0-------0-4-0-4-|--------0---2---3-------0---2---4-|
----0---0-----------0---0---------|--2---2---2---2---2---2---2---2---|
----------------------1-----------|----3---------------3-------------|
------1---------------------------|----------------------------------|
----------------------------------|----------------------------------|
----------------------------------|----------------------------------|


------------3---4-----------2---2-|------------1---2-----------0---0-|
--4-------4---4---4-------4---4---|--0-------0---0---2-------2---2---|
----2---2-----------1---1---------|----1---1-------------------------|
----------------------------------|--------------------4---4---------|
------2---------------3-----------|------4---------------1-----------|
----------------------------------|----------------------------------|


----------------0-----------0-----|----------------------------------|
------------4-----0-------0---1-4-|------------2---0-----------------|
--2-------2---2-------------------|--2-------2---2---2---------2---1-|
----4---4-----------2---2---------|----2---2-----------1-----1---1---|
------2---------------------------|------0-----------------2---------|
----------------------4-----------|----------------------2-----------|


----------------------------0-2-4-|--0-------0-4-0-4-0-------0-4-0-2-|
----------------------0-2-4-------|----0---0-------------------------|
------------------1-2-------------|--------------------2---2---------|
--2-----------2-4-----------------|------2---------------------------|
----2-----2-4---------------------|----------------------2-----------|
------0-4-------------------------|----------------------------------|


--------4-0-----5-2-------2-5-2-4-|--0-------0-4-0-2-----------2---0-|
--4---------2-------1---1---------|----2---2---------4-------4---4---|
----2-----------------------------|--------------------2---2---------|
----------------------1-----------|------2---------------4-----------|
------2-------4-------------------|----------------------------------|
----------------------------------|----------------------------------|


----------------------------0-4-9-|----------4-9---9-------------9------|
--2---2-4-1-------------2-4-------|--9-----------9---10-------10---10-9-|
----1-----------------1-----------|----6---6------------8---8-----------|
------------4-----1-2-------------|-------------------------------------|
----------------4-----------------|------7----------------9-------------|
--------------4-------------------|-------------------------------------|


--------------------------------5-|------------4---------------------|
------------7---------------5-----|--6-------6---6-7-----------7---5-|
--8-------8---8-9-6-------6---6---|----6---6---------6-------6---6---|
----6---7-----------6---6---------|--------------------7---7---------|
----------------------4-----------|----------------------------------|
------8---------------------------|------7---------------5-----------|


--------------------------------9-|----------4-9-------------------7-|
------------4---------------2-----|--9-----------9-7-----------7-----|
--5-------5---5-6---------1---1---|----6---6---------6-------6---6---|
----4---4---------6-----2---------|--------------------8---8---------|
--------------------7-4-----------|------8---------------7-----------|
------4---------------------------|----------------------------------|


----------2-7---0-------0-2-4-5-7-|------------7---------------0-----|
--7-0---0-----7---0---0-----------|--6-------6---6-5-3-----0-3---3-0-|
--------------------1-------------|----7---7-----------4-1-----------|
----------------------------------|------7---------------------------|
------6---------------------------|----------------------------------|
----------------------------------|----------------------------------|


----------------------------------|----0---4-0-7-4-12-11-12-11-12-13-14-------|
------------0-------------------0-|------0------------------------------15----|
----------------------------1-----|--1-------------------------------------16-|
--3-0---0-3---3-2-------2-----2---|-------------------------------------------|
------0-----------2---2---2-------|-------------------------------------------|
--------------------4-------------|-------------------------------------------|


--------------------------------------------------|
--------------14-15----------------------12-------|
--15-16-15-16-------16-13-12-13-12-13-14----13----|
-----------------------------------------------14-|
--------------------------------------------------|
--------------------------------------------------|


-------------------------------------------------|
-------------------------------------------------|
-------------------------------------------------|
--13-14-13-14-15-16-------------------11-12-9----|
--------------------17-14-13-14-13-14---------11-|
-------------------------------------------------|


-----------------------------------------------|
-----------------------------------------------|
-----------------------------------------------|
-----------------9-------------------------0---|
--10-11-10-11-12---11--------------------------|
----------------------12-11-12-11-12-13-14---7-|


----------------------------------|--------------------------------0-|
----------------------------------|------------------------0-2-3-4---|
----------------------------------|--------------------1-2-----------|
----------------------------------|------------0-1-2-4---------------|
----------4-5-2-----------0-2-----|------0-2-4-----------------------|
--6-7-6-7-------4-3-4-3-4-----4-0-|--2-4-----------------------------|


----0-1-4-2-----------------------|----------------------------------|
--4---------3-0-----------------2-|------------2---3-0-----2-------0-|
----------------2-----------2-----|--2-------2---2-----1-----2-------|
------------------2-------2---2---|----2---2-------------2-----2-----|
--------------------4-0-4---------|------4-----------------------4---|
----------------------------------|----------------------------------|


----------------------------------|----------------0-----------------|
----------------0-------2-------3-|--0-------0-3-0---2-----3-0-----2-|
--1-----------1---1-------3-------|--------------------3-------------|
----2-0---0-2-------2-0-----4-----|----4---4-------------4-----4-----|
--------2---------------------4---|------2-----------------------2---|
----------------------------------|----------------------------------|


------------------------0-------5-|--0-------0-5-0-4-0-----2-------0-|
------------2---3-0-------0-------|--------------------------4-------|
--3-------3---3-------------1-----|----2---2-----------2-------2-----|
----4---4-----------4---------0---|----------------------------------|
----------------------2-----------|------4---------------4-------3---|
------2---------------------------|----------------------------------|


------------0---------------------|----------------------------------|
--2-------2---2-3-----------3---2-|------------2---0-----------0-----|
----1---1---------3-------3---3---|--3-------3---3---1-------1---1-2-|
--------------------2---2---------|----1---1-----------0---0---------|
----------------------------------|----------------------------------|
------4---------------2-----------|------2---------------0-----------|


--------------------------------0-|------------0---5-0-------0-5-0-0-|
----------------2-----------2-----|--2-------2---2-----2---2---------|
------------2-----2-------2---2---|----2---2-------------2-----------|
--2-------2---2-----2---2---------|------2---------------------------|
----4-0-4-------------4-----------|----------------------------------|
----------------------------------|----------------------------------|


------------0---------------------|----------------------------------|
--2-------2---2-2-----------2-----|------------------------------2---|
----2---2---------2-------2---2-2-|------------2---2-----------2---2-|
------2-------------2---2---------|--2-------2---2---2-------2-------|
----------------------4-----------|----4-0-4-----------4-0-4---------|
----------------------------------|----------------------------------|


--------0-5-9-12-17--------5-|------------------||
------2--------------------5-|------------------||
--1-2------------14--------6-|------------------||
---------------------------7-|------------------||
---------------------------7-|------------------||
---------------------------5-|------------------||

Добавлено: 20.03.2012
Другие материалы по этой песне:

Страница создана 20.03.2012
http://primanota.ru/agustin-barrios-mangore/estudio-de-concierto-chords.htm
Привет, Гость.
Предлагаем пройти революционный курс по гитаре.
Подарок от PrimaNota.Ru, забирай!