PrimaNota.ru - самый крупный в мире бесплатный архив песенных текстов, аккордов, табулатур и нот


Барриос Мангоре Агустин - El Sueno - таба, видео

Регистрация Запомнить меня
Войти через:  Facebook Google Twitter Vk Yandex Mail.ru

Барриос Мангоре Агустин - El Sueno - таба, видео

Печатать
Просмотров: 145
El Sueno de la Munequita - Augustin Barrios Mangore
2 versions - 1st by Jeroen Wijnhout, 2nd by Carlos
Cordero
***************************************************************************

El Sueno de la Munequita
(The sleep of the Little Doll)

Augustin Barrios Mangore

tablature by: Jeroen Wijnhout
(j.s.wijnhout@student.utwente.nl)

This is a simplified version of the song (i.e. not
very hard to play) I
heard on the CD Anthology of Guitar Music Vol 4.

Note the artificial harmonics at the end this song. In
this case all the
harmonics are octave harmonics, thus -

 AHo   
-----  is played as follows: put your finger (left
hand) on the third fret
-----  of the A string and play the harmonic (now an
octave higher than the
-----  C on the A string) on the 15th fret.	
-----	
--3--	
-----	


    C5 - - - - - - - - - - - - - - - - - - - - - - - -
   C7 - - - - - - 
E||-----------------|-----------------|--5--------------|-----------------|
B||------5----8--6--|--5--------------|-------5----5----|--9--------------|
G||-----------------|-------5----5----|-------5----5----|-------7----7----|
D||-----------------|-------7----7----|-----------------|-------9----9----|
A||-----------------|--0--------------|-----------------|-----------------|
E||-----------------|-----------------|--0--------------|--7--------------|


                                                      
                 
-----------------|--0--------------|-----------------|-----------------|
------------6----|-------3----3----|------------3----|--1--------------|
-------7---------|-------4----4----|-------4---------|-------2----2----|
-----------------|--6--------------|-----------------|-------2----2----|
--7--------------|-----------------|-----------------|--0--------------|
-----------------|-----------------|--0--------------|-----------------|


C5 - - - - - - - - - - - - - - - - - - - - - - - - -  
C7 - - - - - - -                                      
                                   
------------------|-----------------|--5--------------|-----------------|
-------5----8--6--|--5--------------|-------5----5----|--8--------------|
------------------|-------5----5----|-------5----5----|-------9----9----|
------------------|-------7----7----|-----------------|-------9----9----|
------------------|--0--------------|-----------------|-----------------|
--0---------------|-----------------|--0--------------|--7--------------|


 - - - - - - - - - - - - - - - - - - - - - - - - - - -
- -   C6 - - - - - - -                                
                                               
--------------7-----|----------7------|--------------7-----|----------7------|
-----------8-----8--|--7----------7---|-----------7-----7--|--6----------6---|
--------9-----------|-------8---------|--------8-----------|-------7---------|
-----9--------------|-------7---------|-----7--------------|-------6---------|
--------------------|--9--------------|--------------------|-----------------|
--7-----------------|-----------------|--7-----------------|--7--------------|


C5 - - - - - - - - - - - - - - - - - - - - - - - - -  
C2 - - - - - - -                                      
                                   
------------------|-----------------|--5--------------|--4--------------|
-------5----8--6--|--5--------------|-------5----5----|-------3----3----|
------------------|-------5----5----|-------5----5----|-------4----4----|
------------------|-------7----7----|-----------------|-----------------|
------------------|--0--------------|-----------------|--2--------------|
--0---------------|-----------------|--0--------------|-----------------|


                                                      
                 
-----------------|-----------------|-----------------|-----------------|
-------3----6----|--5--------------|------------3----|--1--------------|
-----------------|-------4----4----|-------4---------|-------2----2----|
-----------------|-------2----2----|-----------------|-------2----2----|
-----------------|-----------------|-----------------|--0--------------|
--0--------------|--4--------------|--0--------------|-----------------|


C2 - - - - - - -                                      
                                    
-----------------|----------0--1----|-----------------|-------------0----|
--2--------------|--3---------------|-------0----3----|--1-------3-------|
-------2----2----|-------2----------|-------2---------|-------2----------|
-------2----2----|-------0----------|-----------------|--2---------------|
-----------------|------------------|--2--------------|------------------|
--3--------------|--1---------------|-----------------|------------------|


                                                      
C2 - - - - - - -                  
-----------------|------------------|-----------------|-----------------|
------------1----|--0-------1--3----|------------0----|-----------------|
-------2---------|------------------|-----------------|--2--------------|
-----------------|-------1----------|-------2---------|-------2---------|
-----------------|------------------|-----------------|------------3----|
--0--------------|--2---------------|--4--------------|--5--------------|


                 AH                 AH              
AH                   
--------------||-----------------|-------0----0----|-----------------|
--------------||-------1----1----|-------1----1----|-------3----3----|
--------------||-------2----2----|-------2----2----|-------1----1----|
--------------||--2--------------|-----------------|-----------------|
--------------||-----------------|--0--------------|--2--------------|
--5-----------||-----------------|-----------------|-----------------|


 AH                AH                AH               
AH                       
-----------------|-----------------|-----------------|-----------------|
-------3----3----|-------0----0----|-------0----0----|-------1----1----|
-------1----1----|-------1----1----|-------1----1----|-------2----2----|
-----------------|--3--------------|--2--------------|-----------------|
-----------------|-----------------|-----------------|--3--------------|
--0--------------|-----------------|-----------------|-----------------|


 AH                AH                AH               
AH                       
-------1----1----|-----------------|-----------------|-------1----1----|
-----------------|-------8----8----|-------8----8----|-------3----3----|
-------1----1----|-------6----6----|-------6----6----|--2--------------|
-----------------|--7--------------|-----------------|-----------------|
--0--------------|-----------------|--0--------------|-----------------|
-----------------|-----------------|-----------------|-----------------|


 AH                AH                AH               
AH                        
-------1----1----|-------1----1----|-------1----1----|-------0----0----|
-----------------|-------0----0----|-------0----0----|-------1----1----|
-------2----2----|--0--------------|-----------------|--0--------------|
--0--------------|-----------------|-----------------|-----------------|
-----------------|-----------------|-----------------|-----------------|
-----------------|-----------------|--3--------------|-----------------|


 AH                AH                AH               
AH                       
-------0----0----|-------1----1----|-----------------|-----------------|
-------1----1----|-----------------|-------3----3----|-------1----1----|
-----------------|-------2----2----|-------1----1----|-------2----2----|
-----------------|--0--------------|-----------------|--2--------------|
--3--------------|-----------------|--2--------------|-----------------|
-----------------|-----------------|-----------------|-----------------|


 AH                AH                AH               
AH                       
-----------------|-----------------|-----------------|-----------------|
-------1----1----|-------0----0----|-------3----3----|-------1----1----|
-------2----2----|-------2----2----|-------4----4----|-------2----2----|
-----------------|-----------------|-------2----2----|-------2----2----|
-----------------|-----------------|-----------------|--0--------------|
--0--------------|--2--------------|--4--------------|-----------------|


  AH                
-------5--------||
-------5--------||
-------5--------||
----------------||
--0-------------||
----------------||


************************************************************************
************************************************************************

El Sueño de la Muñequita - The Sleep of the Little
Doll
Author: Agustín Barrios Mangoré
Transcription By: Carlos Cordero
                  cachome@telcel.net.ve
                 
http://www.geocities.com/vienna/waltz/2067/



                           "El Sueño de la Muñequita"


Key Signature: C Major
Time Signature: 3/4
Tablature Explanation At The End.


    c5------------------------/c7------/
     
E-||--------|--------|-5------|--------|--------|-0------|--------|--------|
B-||-5--8-6-|-5------|----5-5-|-9------|------6-|----3-3-|------3-|-1------|
G-||--------|----5-5-|----5-5-|----7-7-|----7---|----4-4-|----4---|----2-2-|
D-||--------|----7-7-|--------|----9-9-|--------|-6------|--------|----2-2-|
A-||--------|-0------|--------|--------|-7------|--------|--------|-0------|
E-||--------|--------|-0------|-7------|--------|--------|-0------|--------|


  
c5--------------------------/c7---------------------------------------------/
                                                      
                  
E-|----------|--------|-5------|--------|---------7---|------7---|---------7---|
B-|---5--8-6-|-5------|----5-5-|-8------|-------8---8-|-7------7-|-------7---7-|
G-|----------|----5-5-|----5-5-|----9-9-|-----9-------|----8-----|-----8-------|
D-|----------|----7-7-|--------|----9-9-|---9---------|----7-----|---7---------|
A-|----------|-0------|--------|--------|-------------|-9--------|-------------|
E-|-0--------|--------|-0------|-7------|-7-----------|----------|-7-----------|


   c6--------/c5--------------------------/c2------/
                                                      
               
E-|------7---|----------|--------|-5------|-4------|-------|--------|-------|
B-|-6------6-|---5--8-6-|-5------|----5-5-|----3-3-|---3-6-|-5------|-----3-|
G-|----7-----|----------|----5-5-|----5-5-|----4-4-|-------|----4-4-|---4---|
D-|----6-----|----------|----7-7-|--------|--------|-------|----2-2-|-------|
A-|----------|----------|-0------|--------|-2------|-------|--------|-------|
E-|-7--------|-0--------|--------|-0------|--------|-0-----|-4------|-0-----|


            c2------/
                                                      
                 
E-|--------|--------|------0-1-|--------|--------0-|--------|----------|
B-|-1------|-2------|-3--------|----0-3-|-1----3---|------1-|-0----1-3-|
G-|----2-2-|----2-2-|----2-----|----2---|----2-----|----2---|----------|
D-|----2-2-|----2-2-|----0-----|--------|-2--------|--------|----1-----|
A-|-0------|--------|----------|-2------|----------|--------|----------|
E-|--------|-3------|-1--------|--------|----------|-0------|-2--------|


            c2------/                                 
                           
                                                      
          
E-|--------|--------|--------||
B-|------0-|--------|--------||
G-|--------|-2------|--------|| to coda.
D-|----2---|----2---|--------||
A-|--------|------3-|--------||
E-|-4------|-5------|---5.---||



           
E-||-----------|-----0-0-|---------|---------|---------|---------|---------|
B-||-------1-1-|-----1-1-|-----3-3-|-----3-3-|-----0-0-|-----0-0-|-----1-1-|
G-||*------2-2-|-----2-2-|-----1-1-|-----1-1-|-----1-1-|-----1-1-|-----2-2-|
D-||*----------|---------|---------|---------|- 3>-----|- 2>-----|---------|
A-||-- 12>-----|- 7>-----|- 2>-----|---------|---------|---------|- 3>-----|
E-||-----------|---------|---------|- 12>----|---------|---------|---------|



      
E-|------1-1-|---------|---------|-----1-1-|------1-1-|------1-1-|----1-1-|
B-|----------|-----8-8-|-----8-8-|-----3-3-|----------|------0-0-|----0-0-|
G-|------1-1-|-----6-6-|-----6-6-|- 2>-----|------2-2-|- 12>-----|--------|
D-|----------|- 7>-----|---------|---------|- 12>-----|----------|--------|
A-|- 12>-----|---------|- 0>-----|---------|----------|----------|--------|
E-|----------|---------|---------|---------|----------|----------|- 3>----|




E-|------0-0-|----0-0-|------1-1-|--------|---------|---------|--------|
B-|------1-1-|----1-1-|----------|----3-3-|-----1-1-|-----1-1-|----0-0-|
G-|- 12>-----|--------|------2-2-|----1-1-|-----2-2-|-----2-2-|----2-2-|
D-|----------|--------|- 12>-----|--------|- 2>-----|---------|--------|
A-|----------|- 3>----|----------|- 2>----|---------|---------|--------|
E-|----------|--------|----------|--------|---------|- 12>----|- 2>----|


                        1°-----|   2°----|       coda
          
E-|---------|----------|-------|| |------||    
|-----5.--||
B-|-----3-3-|------1-1-|--1.---|| |--1.--||    
|-----5.--||
G-|-----4-4-|------2-2-|--2---*|| |--2.--||    
|-----5.--|| fine
D-|-----2-2-|------2-2-|--2.--*|| |--2.--||    
|---------||
A-|---------|- 12>-----|-------|| |--0.--||    
|--0------||
E-|- 4>-----|----------|-------|| |------||    
|---------||
                                   D.C.
                                   and fine
....................._

Tablature Explanation:
                                                      
          cx------/

E-||------------||
|-------|---------|----(7----|-------|---------|---------|
B-||------------||
|-------|---------|----)7----|-------|---------|---------|
G-||*--repeat--*||
|--5/7--|--10p12--|----(5----|--1h4--|-- 12>---|---------|
D-||*----------*||
|-------|---------|----)6----|-------|---------|---------|
A-||------------||
|-------|---------|----(6----|-------|---------|---------|
E-||------------||
|-------|---------|----)7----|-------|---------|---------|
                     Slur     pull     arpegiate 
Hammer  Harmonic   Bar on
                              off                  on 
              x fret


......................................................_

E-|---Author:-Agutín-Barrios-Mangoré---------------|
B-|---Transcription-by:-Carlos-Cordero-------------|
G-|---E-Mail:-cachome@telcel.net.ve----------------|  

D-|---Look-More-Classical-Guitar-Tabs-at:----------|
A-|---http://www.geocities.com/vienna/waltz/2067---|
E-|---Enjoy!---------------------------------------|

     
Добавлено: 07.09.2013
Другие материалы по этой песне:
  • Аккорды и текст

Страница создана 07.09.2013
http://primanota.ru/agustin-barrios-mangore/el-sueno-chords.htm
Привет, Гость.
Предлагаем пройти революционный курс по гитаре.
Подарок от PrimaNota.Ru, забирай!