PrimaNota.ru - самый крупный в мире бесплатный архив песенных текстов, аккордов, табулатур и нот


Барриос Мангоре Агустин - Contemplacion - таба, видео

Регистрация Запомнить меня
Войти через:  Facebook Google Twitter Vk Yandex Mail.ru

Барриос Мангоре Агустин - Contemplacion - таба, видео

Печатать
Просмотров: 169
Авторы музыки: Agustín Barrios Mangoré

Contemplacion

Agustin Barrios Mangore

beautiful piece. have a look at xuefei yang's intepretation.
(classical guitar standard tuning)

                                                                          
e|--12-----------------|-----7--9--10--9--7--|--12----------------------|
B|--10-----------------|--9------------------|------10--10--10--10--10--|
G|---------------------|--7------------------|--------------------------|
D|--11-----------------|---------------------|------11--11--11--11--11--|
A|------7--7--7--7--7--|--7------------------|-------7---7---7---7---7--|
E|---------------------|---------------------|--------------------------|


                                                                       
------7--9--10--9--7--|--10----------10--------|--9-------------9--7--|
--10------------------|------10--10------9--9--|-----10--10--7--------|
----------------------|-------7---7------7--7--|------9---9--7--------|
--11------------------|------------------------|-----11--11--9--------|
---7------------------|-------9---9------7--7--|----------------------|
----------------------|------------------------|----------------------|


                       ^
-----9--7-----9--7--|--0------------|--------------------|--------------------|
--7--------6--------|--0------------|--------------------|--------------------|
--8--------7--------|--7------------|--------------------|--------------------|
--7--------7--------|--6------------|--------------------|--------------------|
--------------------|--7------------|-----7--6--7-----7--|-----7--6--7-----7--|
--------------------|--0------------|--5-----------0-----|--5-----------0-----|


                                                   
--------------------------------------------0-0-0-|
----2-2-2---2-2-2---2-2-2---3-3-3---4-4-4---------|
--------------------------------------------------|
----------2-------1-------2-------1-------0-------|
--0-----------------------------------------------|
--------------------------------------------------|


                                                   
----9-9-9---9-9-9---9-9-9---9-9-9---9-9-9---9-9-9-|
--------------------------------------------------|
--------------------------------------------------|
------------------9-------7-------6-------7-------|
--4-------7---------------------------------------|
--------------------------------------------------|


                                                                        
----12-12-12----12-12-12---17-17-17----17-17-17---12-12-12----12-12-12-|
-----------------------------------------------------------------------|
-----------------------------------------------------------------------|
-------------11---------------------16---------------------14----------|
--0---------------------------------------------0----------------------|
-------------------------0---------------------------------------------|


                                                                         
----14-14-14----14-14-14----14-14-14----14-14-14---12-12-12----12-12-12-|
------------------------------------------------------------------------|
-------------------------11----------------------9----------------------|
-------------10----------------------10---------------------11----------|
--0---------------------------------------------------------------------|
------------------------------------------------------------------------|


                                                                  
----12-12-12---12-12-12---12-12-12---12-12-12---10-10-10---9-9-9-|
-----------------------------------------------------------------|
-----------------------------------------------------------------|
----------------------------------------------9----------7-------|
-------------9----------8----------9-----------------------------|
--7--------------------------------------------------------------|


                                                    
----7-7-7---7-7-7---0-0-0---0-0-0---0-0-0----0-0-0-|
---------------------------------------------------|
---------------------------------------------------|
----------6---------------6---------------11-------|
------------------5---------------7----------------|
--0------------------------------------------------|


                                                             
-----0-0-0----0-0-0----10-10-10----10-10-10---9-9-9---9-9-9-|
------------------------------------------------------------|
------------------------------------------------------------|
-----------11--------------------9------------------7-------|
--12----------------11----------------------9---------------|
------------------------------------------------------------|


                                                          
----7-7-7---7-7-7---7-7-7---7-7-7----10-10-10---10-10-10-|
------------------0---------------------------9----------|
--------------------------9-------11---------------------|
----------6----------------------------------------------|
--7------------------------------------------------------|
---------------------------------------------------------|


                                                             
----9-9-9----9-9-9----9-9-9---9-9-9----14-14-14----14-14-14-|
----------12-------10-------9-------------------------------|
------------------------------------------------12----------|
------------------------------------------------------------|
--0---------------------------------12----------------------|
------------------------------------------------------------|


                                                                  
----12-12-12---12-12-12---10-10-10----10-10-10----9-9-9----9-9-9-|
-------------8---------------------------------------------------|
-----------------------------------11--------------------9-------|
--8---------------------9----------------------11----------------|
-----------------------------------------------------------------|
-----------------------------------------------------------------|


                                                          
----7-7-7---7-7-7---7-7-7---7-7-7---12-12-12----14-14-14-|
------------------7--------------------------------------|
----------7---------------7-------9----------11----------|
--0------------------------------------------------------|
---------------------------------------------------------|
---------------------------------------------------------|


                                                   
----2-2-2---2-2-2---2-2-2---2-2-2---2-2-2---2-2-2-|
--------------------------0---------------0-------|
----------2---------------------------------------|
--1-------------------------------1---------------|
------------------2-------------------------------|
--------------------------------------------------|


                                                   
----5-5-5---5-5-5---4-4-4---4-4-4---5-5-5---5-5-5-|
------------------4---------------4---------------|
----------4---------------4---------------4-------|
--4-----------------------------------------------|
--------------------------------------------------|
--------------------------------------------------|


                                                   
----7-7-7---7-7-7---7-7-7---7-7-7---4-4-4---4-4-4-|
--------------------------------------------------|
------------------7---------------7---------------|
----------6---------------6---------------6-------|
--------------------------------------------------|
--0-----------------------------------------------|


                                                   
----2-2-2---2-2-2---0-0-0---0-0-0-----------------|
------------------------------------3-3-3---3-3-3-|
----------2---------------3---------------4-------|
--------------------------------------------------|
--------------------------------------------------|
--2---------------3---------------4---------------|


                                                   
--------------------------------------------0-0-0-|
----2-2-2---2-2-2---2-2-2---3-3-3---4-4-4---------|
--------------------------------------------------|
----------2-------1-------2-------1-------0-------|
--0-----------------------------------------------|
--------------------------------------------------|


                                                   
----9-9-9---9-9-9---9-9-9---9-9-9---9-9-9---9-9-9-|
--------------------------------------------------|
--------------------------------------------------|
------------------9-------7-------6-------7-------|
----------7---------------------------------------|
--9-----------------------------------------------|


                                                                        
----12-12-12----12-12-12---17-17-17----17-17-17---12-12-12----12-12-12-|
-----------------------------------------------------------------------|
-----------------------------------------------------------------------|
-------------11---------------------16---------------------11----------|
--0---------------------------------------------0----------------------|
-------------------------0---------------------------------------------|


                                                                          
----14-14-14----14-14-14----14-14-14----14-14-14----12-12-12----12-12-12-|
-------------------------------------------------------------------------|
-------------------------11-----------------------9----------------------|
-------------10----------------------10----------------------11----------|
--0----------------------------------------------------------------------|
-------------------------------------------------------------------------|


                                                                  
----12-12-12---12-12-12---12-12-12---12-12-12---10-10-10---9-9-9-|
-----------------------------------------------------------------|
-----------------------------------------------------------------|
----------------------------------------------9----------7-------|
-------------9----------8----------9-----------------------------|
--7--------------------------------------------------------------|


                                                   
----7-7-7---7-7-7---0-0-0---0-0-0---0-0-0---0-0-0-|
--------------------------------------------------|
--------------------------------------------------|
----------6---------------6---------------6-------|
------------------5---------------7---------------|
--0-----------------------------------------------|


                                                             
-----0-0-0----0-0-0----10-10-10----10-10-10---9-9-9---9-9-9-|
------------------------------------------------------------|
------------------------------------------------------------|
-----------11--------------------9------------------7-------|
--12----------------11----------------------9---------------|
------------------------------------------------------------|


                                                           
----7-7-7---7-7-7---7-7-7---7-7-7----10-10-10----10-10-10-|
------------------0----------------------------9----------|
--------------------------9-------11----------------------|
----------6-----------------------------------------------|
--7-------------------------------------------------------|
----------------------------------------------------------|


                                                             
----9-9-9----9-9-9----9-9-9---9-9-9----14-14-14----14-14-14-|
----------12-------10-------9-------------------------------|
------------------------------------------------12----------|
------------------------------------------------------------|
--0---------------------------------12----------------------|
------------------------------------------------------------|


                                                                  
----12-12-12---12-12-12---10-10-10----10-10-10----9-9-9----9-9-9-|
-------------8---------------------------------------------------|
-----------------------------------11--------------------9-------|
--8---------------------9----------------------11----------------|
-----------------------------------------------------------------|
-----------------------------------------------------------------|


                                                   
----7-7-7---7-7-7---9-9-9---9-9-9-----------------|
------------------7-----------------6-6-6---6-6-6-|
----------7---------------------------------------|
--0-----------------------0---------------7-------|
----------------------------------6---------------|
--------------------------------------------------|


                                                   
----0-0-0---0-0-0---2-2-2---4-4-4---5-5-5---7-7-7-|
--------------------------------------------------|
----------1-------2-------4-------6-------7-------|
--2-----------------------------------------------|
--------------------------------------------------|
--------------------------------------------------|


                                                   
----9-9-9---9-9-9---9-9-9---9-9-9---7-7-7---7-7-7-|
--------------------------5-----------------------|
----------9-------------------------------7-------|
------------------5---------------6---------------|
--9-----------------------------------------------|
--------------------------------------------------|


                                                                        
----5-5-5---5-5-5---5-5-5---5-5-5---5-5-5---5-5-5-|--------------0-----|
--------------------------7-------5---------------|-----------7--------|
------------------6-------------------------------|--------6-----------|
----------7---------------------------------------|-----7--------------|
--0-----------------------------------------------|--0-----------------|
------------------------------------------0-------|-----------------0--|


                                                   
----9-9-9---9-9-9---9-9-9---9-9-9---9-9-9---9-9-9-|
--------------------------7-----------------------|
------------------6---------------9---------------|
----------7-------------------------------7-------|
--0-----------------------------------------------|
--------------------------------------------------|


                                                                       
----10-10-10----10-10-10---10-10-10---10-10-10---10-10-10----10-10-10-|
------------------------------------7---------------------------------|
-----------------------------------------------9----------------------|
-------------------------9--------------------------------------------|
-------------11-------------------------------------------11----------|
--0-------------------------------------------------------------------|


                                                   
----8-8-8---8-8-8---9-9-9---9-9-9---5-5-5---5-5-5-|
--------------------------------------------------|
----------8---------------9-----------------------|
------------------7-----------------------4-------|
--0-----------------------------------------------|
----------------------------------2---------------|


                                                   
----7-7-7---7-7-7---7-7-7---7-7-7---9-9-9---9-9-9-|
--------------------------------------------------|
------------------7-----------------------9-------|
--------------------------------------------------|
----------7---------------7-----------------------|
--4-------------------------------0---------------|


                                                                        
----5-5-5---5-5-5---5-5-5---5-5-5---5-5-5---5-5-5-|--------------------|
--------------------------7-------5---------------|--------------------|
----------6---------------------------------------|--------------------|
------------------7-------------------------------|-----2-----4--2-----|
--0-----------------------------------------------|--0-----4-----------|
------------------------------------------0-------|-----------------0--|


                                                   
----9-9-9---9-9-9---9-9-9---9-9-9---9-9-9---9-9-9-|
--------------------------7-----------------------|
------------------6---------------9---------------|
----------7-------------------------------7-------|
--0-----------------------------------------------|
--------------------------------------------------|


                                                                       
----10-10-10----10-10-10---10-10-10---10-10-10---10-10-10----10-10-10-|
------------------------------------7---------------------------------|
-----------------------------------------------9----------------------|
-------------------------9--------------------------------------------|
-------------11-------------------------------------------11----------|
--0-------------------------------------------------------------------|


                                                   
----8-8-8---8-8-8---9-9-9---9-9-9---5-5-5---5-5-5-|
--------------------------------------------------|
----------8---------------9-----------------------|
------------------7-----------------------4-------|
--0-----------------------------------------------|
----------------------------------2---------------|


                                                   
----7-7-7---7-7-7---7-7-7---7-7-7---9-9-9---9-9-9-|
--------------------------------------------------|
------------------7---------------7---------------|
--------------------------------------------------|
----------7---------------7---------------7-------|
--4-----------------------------------------------|


                                                         
----7-7-7---7-7-7---9-9-9---9-9-9---10-10-10---10-10-10-|
------------------7---------------7---------------------|
----------7---------------7------------------7----------|
--0-----------------------------------------------------|
--------------------------------------------------------|
--------------------------------------------------------|


                                                                           
-----16-16-16----16-16-16----16-16-16----16-16-16----14-14-14----14-14-14-|
--------------------------------------------------------------------------|
--------------------------14----------------------14----------------------|
--------------------------------------------------------------------------|
--------------14----------------------14----------------------14----------|
--11----------------------------------------------------------------------|


                                                         
----7-7-7---7-7-7---9-9-9---9-9-9---10-10-10---10-10-10-|
--------------------------------------------------------|
------------------7---------------7---------------------|
----------6---------------------------------------------|
--------------------------7------------------7----------|
--4-----------------------------------------------------|


                                                                          
----14-14-14----14-14-14----14-14-14----14-14-14----12-12-12----12-12-12-|
-------------------------------------------------------------------------|
-------------------------14----------------------12----------------------|
-------------11----------------------11----------------------11----------|
--0----------------------------------------------------------------------|
-------------------------------------------------------------------------|


                                                   
----5-5-5---5-5-5---5-5-5---5-5-5---7-7-7---7-7-7-|
------------------7---------------6---------------|
----------7---------------7---------------7-------|
--0-----------------------------------------------|
--------------------------------------------------|
--------------------------------------------------|


                                                       
----9-9-9----9-9-9---9-9-9----9-9-9----9-9-9----9-9-9-|
-------------------9----------------------------------|
---------------------------10-------------------------|
------------------------------------11----------------|
----------11---------------------------------11-------|
--9---------------------------------------------------|


                                                      
----7-7-7---7-7-7---7-7-7---7-7-7---9-9-9---10-10-10-|
----------------------------------7------------------|
--------------------------7---------------7----------|
------------------9----------------------------------|
----------9------------------------------------------|
--7--------------------------------------------------|


                                                   
----5-5-5---5-5-5---5-5-5---5-5-5---4-4-4---4-4-4-|
------------------6-------------------------------|
--------------------------4---------------4-------|
----------6-----------------------6---------------|
--4-----------------------------------------------|
--------------------------------------------------|


                                                   
----2-2-2---2-2-2---2-2-2---2-2-2---2-2-2---2-2-2-|
------------------2-------------------------------|
--------------------------2---------------2-------|
----------------------------------4---------------|
----------4---------------------------------------|
--2-----------------------------------------------|


                                                   
----1-1-1---1-1-1---2-2-2---2-2-2---4-4-4---4-4-4-|
------------------3-----------------------3-------|
----------4---------------4-----------------------|
--------------------------------------------------|
--------------------------------------------------|
--4-------------------------------4---------------|


                                                   
----7-7-7---7-7-7---7-7-7---7-7-7---5-5-5---5-5-5-|
------------------7---------------7---------------|
--------------------------6---------------6-------|
----------0---------------------------------------|
--0-----------------------------------------------|
--------------------------------------------------|


                                                   
----4-4-4---4-4-4---4-4-4---4-4-4---2-2-2---2-2-2-|
------------------3-------3---------------3-------|
----------4---------------------------------------|
--------------------------------------------------|
--2-------------------------------3---------------|
--------------------------------------------------|


                                                       
----9-9-9----9-9-9---9-9-9----9-9-9----9-9-9----9-9-9-|
-------------------9----------------------------------|
---------------------------10-------------------------|
------------------------------------11-------11-------|
----------11------------------------------------------|
--9---------------------------------------------------|


                                                       
----9-9-9----9-9-9---9-9-9----9-9-9----9-9-9----9-9-9-|
-------------------9----------------------------------|
---------------------------10-------------------------|
------------------------------------11-------11-------|
----------11------------------------------------------|
--9---------------------------------------------------|


                                                                           
-----14-14-14----14-14-14----14-14-14----14-14-14----14-14-14----14-14-14-|
--------------------------------------------------------------------------|
--------------------------------------------------------------------------|
--------------11----------------------11----------------------10----------|
--12----------------------12----------------------12----------------------|
--------------------------------------------------------------------------|


                                                                           
-----14-14-14----14-14-14----14-14-14----14-14-14----12-12-12----12-12-12-|
--------------------------------------------------------------------------|
--------------------------------------------------------------------------|
---------------9-----------------------9-----------------------9----------|
--11----------------------11----------------------11----------------------|
--------------------------------------------------------------------------|


                                                               
----12-12-12---12-12-12---10-10-10---10-10-10---8-8-8---8-8-8-|
--------------------------------------------------------------|
--------------------------------------------------------------|
-------------7---------------------7------------------7-------|
--9---------------------9---------------------9---------------|
--------------------------------------------------------------|


                                                   
----9-9-9---9-9-9---9-9-9---9-9-9---9-9-9---9-9-9-|
--------------------------------------------------|
--------------------------------------------------|
----------6---------------6---------------6-------|
--8---------------8---------------8---------------|
--------------------------------------------------|


                                                         
----9-9-9---9-9-9---10-10-10---10-10-10---9-9-9---9-9-9-|
--------------------------------------------------------|
----------0------------------0------------------0-------|
--------------------------------------------------------|
--7---------------7---------------------7---------------|
--------------------------------------------------------|


                                                   
----9-9-9---9-9-9---9-9-9---9-9-9---7-7-7---7-7-7-|
--------------------------------------------------|
--------------------------------------------------|
----------4---------------4---------------4-------|
--5---------------5---------------5---------------|
--------------------------------------------------|


                                                   
----5-5-5---5-5-5---5-5-5---5-5-5---4-4-4---4-4-4-|
--------------------------------------------------|
------------------4-------------------------------|
----------3---------------3---------------3-------|
--4-------------------------------4---------------|
--------------------------------------------------|


                                                   
----2-2-2---2-2-2---2-2-2---2-2-2---2-2-2---2-2-2-|
------------------------------------------2-------|
----------------------------------2---------------|
--------------------------4-----------------------|
------------------4-------------------------------|
--2-------5---------------------------------------|


                                                    
----9-9-9---9-9-9----9-9-9---9-9-9---9-9-9---9-9-9-|
---------------------------7-----------------------|
-----------------------------------9---------------|
----------7-------11-----------------------7-------|
--0------------------------------------------------|
---------------------------------------------------|


                                                                        
----10-10-10----10-10-10---10-10-10----10-10-10---10-10-10----10-10-10-|
-----------------------------------------------------------------------|
------------------------------------11----------9----------------------|
-------------------------9---------------------------------------------|
-------------11--------------------------------------------11----------|
--0--------------------------------------------------------------------|


                                                   
----8-8-8---8-8-8---9-9-9---9-9-9---5-5-5---5-5-5-|
--------------------------------------------------|
----------8---------------9-----------------------|
------------------7-----------------------4-------|
--0-----------------------------------------------|
----------------------------------2---------------|


                                                   
----7-7-7---7-7-7---7-7-7---7-7-7---7-7-7---7-7-7-|
--------------------------------------------------|
------------------7---------------7---------------|
--------------------------------------------------|
----------7---------------7---------------7-------|
--4-----------------------------------------------|


                                                         
----7-7-7---7-7-7---9-9-9---9-9-9---10-10-10---10-10-10-|
------------------7---------------7---------------------|
----------7---------------7------------------7----------|
--------------------------------------------------------|
--5-----------------------------------------------------|
--------------------------------------------------------|


                                                                           
-----16-16-16----16-16-16----16-16-16----16-16-16----14-14-14----14-14-14-|
--------------------------------------------------------------------------|
--------------------------14----------------------14----------------------|
--------------------------------------------------------------------------|
--------------14----------------------14----------------------14----------|
--11----------------------------------------------------------------------|


                                                         
----7-7-7---7-7-7---9-9-9---9-9-9---10-10-10---10-10-10-|
--------------------------------------------------------|
------------------7---------------7---------------------|
----------6---------------------------------------------|
--------------------------7------------------7----------|
--4-----------------------------------------------------|


                                                                          
----14-14-14----14-14-14----14-14-14----14-14-14----12-12-12----12-12-12-|
-------------------------------------------------------------------------|
-------------------------14----------------------12----------------------|
-------------11----------------------11----------------------11----------|
--0----------------------------------------------------------------------|
-------------------------------------------------------------------------|


                                                   
----5-5-5---5-5-5---5-5-5---5-5-5---7-7-7---7-7-7-|
------------------7---------------6---------------|
----------7---------------7---------------7-------|
--0-----------------------------------------------|
--------------------------------------------------|
--------------------------------------------------|


                                                       
----9-9-9----9-9-9---9-9-9----9-9-9----9-9-9----9-9-9-|
-------------------9----------------------------------|
---------------------------10-------------------------|
------------------------------------11----------------|
----------11---------------------------------11-------|
--9---------------------------------------------------|


                                                      
----7-7-7---7-7-7---7-7-7---7-7-7---9-9-9---10-10-10-|
----------------------------------7------------------|
--------------------------7---------------7----------|
------------------9----------------------------------|
----------9------------------------------------------|
--7--------------------------------------------------|


                                                   
----5-5-5---5-5-5---5-5-5---5-5-5---4-4-4---4-4-4-|
------------------6-------------------------------|
--------------------------4---------------4-------|
----------6-----------------------6---------------|
--4-----------------------------------------------|
--------------------------------------------------|


                                                   
----2-2-2---2-2-2---2-2-2---2-2-2---2-2-2---2-2-2-|
------------------2-------------------------------|
--------------------------2---------------2-------|
----------------------------------4---------------|
----------4---------------------------------------|
--2-----------------------------------------------|


                                                   
----1-1-1---1-1-1---2-2-2---2-2-2---4-4-4---4-4-4-|
------------------3-----------------------3-------|
----------4---------------4-----------------------|
--------------------------------------------------|
--------------------------------------------------|
--4-------------------------------4---------------|


                                                   
----7-7-7---7-7-7---7-7-7---7-7-7---5-5-5---5-5-5-|
------------------7---------------7---------------|
--------------------------6---------------6-------|
----------0---------------------------------------|
--0-----------------------------------------------|
--------------------------------------------------|


                                                   
----4-4-4---4-4-4---4-4-4---4-4-4---2-2-2---2-2-2-|
----------------------------------4---------------|
----------4-------4-------4---------------2-------|
--------------------------------------------------|
--2-----------------------------------------------|
--------------------------------------------------|


                                                   
----0-0-0---0-0-0---0-0-0---0-0-0---0-0-0---0-0-0-|
------------------0-------------------------------|
--------------------------1-----------------------|
----------------------------------2---------------|
----------2-------------------------------2-------|
--0-----------------------------------------------|


                                                   
----0-0-0---0-0-0---0-0-0---0-0-0---0-0-0---0-0-0-|
------------------------------------------0-------|
----------------------------------1---------------|
--------------------------2-----------------------|
------------------2-------------------------------|
--0-------4---------------------------------------|


                                                         
-----0-0-0----0-0-0----0-0-0----0-0-0----0-0-0----0-0-0-|
--------------------14-------12-------------------------|
-----------13-------------------------13----------------|
--14-------------------------------------------14-------|
--------------------------------------------------------|
--------------------------------------------------------|


                                                      
-----0-0-0----0-0-0----0-0-0---0-0-0---0-0-0---0-0-0-|
-----------------------------0-----------------------|
-------------------------------------1---------------|
--14-------13-------12-----------------------4-------|
-----------------------------------------------------|
-----------------------------------------------------|


                                                   
----0-0-0---0-0-0---0-0-0---0-0-0---0-0-0---0-0-0-|
--------------------------------------------------|
--------------------------------------------------|
--2-------1-------0-------------------------------|
--------------------------2-----------------------|
----------------------------------4-------2-------|


                                                   
----0-0-0---0-0-0---0-0-0---0-0-0---0-0-0---0-0-0-|
------------------------------------------0-------|
----------------------------------1---------------|
--------------------------2-----------------------|
------------------2-------------------------------|
--0-------4---------------------------------------|


                                                   
----0-0-0---0-0-0---0-0-0---0-0-0---0-0-0---0-0-0-|
--------------------------------------------------|
--------------------------------------------------|
--2-------2-------2-------2-------2-------2-------|
--------------------------------------------------|
--------------------------------------------------|


                                                   
----0-0-0---0-0-0---------------------------------|
--------------------4-4-4---4-4-4---3-3-3---3-3-3-|
----------------------------------1-------1-------|
--2-------2-------4-------4-----------------------|
--------------------------------------------------|
--------------------------------------------------|


                                                   
--------------------------------------------0-0-0-|
----2-2-2---2-2-2---2-2-2---3-3-3---4-4-4---------|
--------------------------------------------------|
----------2-------1-------2-------1-------0-------|
--0-----------------------------------------------|
--------------------------------------------------|


                                                   
----9-9-9---9-9-9---9-9-9---9-9-9---9-9-9---9-9-9-|
--------------------------------------------------|
--------------------------------------------------|
------------------9-------7-------6-------7-------|
----------7---------------------------------------|
--9-----------------------------------------------|


                                                                        
----12-12-12----12-12-12---17-17-17----17-17-17---12-12-12----12-12-12-|
-----------------------------------------------------------------------|
-----------------------------------------------------------------------|
-------------11---------------------16---------------------11----------|
--0---------------------------------------------0----------------------|
-------------------------0---------------------------------------------|


                                                                         
----14-14-14----14-14-14----14-14-14----14-14-14---12-12-12----12-12-12-|
------------------------------------------------------------------------|
-------------------------11----------------------9----------------------|
-------------10----------------------10---------------------11----------|
--0---------------------------------------------------------------------|
------------------------------------------------------------------------|


                                                                  
----12-12-12---12-12-12---12-12-12---12-12-12---10-10-10---9-9-9-|
-----------------------------------------------------------------|
-----------------------------------------------------------------|
----------------------------------------------9----------7-------|
-------------9----------8----------9-----------------------------|
--7--------------------------------------------------------------|


                                                   
----7-7-7---7-7-7---0-0-0---0-0-0---0-0-0---0-0-0-|
--------------------------------------------------|
--------------------------------------------------|
----------6---------------6---------------6-------|
------------------5---------------7---------------|
--0-----------------------------------------------|


                                                             
-----0-0-0----0-0-0----10-10-10----10-10-10---9-9-9---9-9-9-|
------------------------------------------------------------|
------------------------------------------------------------|
-----------11--------------------9------------------7-------|
--12----------------11----------------------9---------------|
------------------------------------------------------------|


                                                          
----7-7-7---7-7-7---7-7-7---7-7-7----10-10-10---10-10-10-|
------------------0-------5-------------------9----------|
----------------------------------11---------------------|
----------6----------------------------------------------|
--7------------------------------------------------------|
---------------------------------------------------------|


                                                             
----9-9-9----9-9-9----9-9-9---9-9-9----14-14-14----14-14-14-|
----------12-------10-------9-------------------------------|
------------------------------------------------12----------|
------------------------------------------------------------|
--0---------------------------------12----------------------|
------------------------------------------------------------|


                                                                  
----12-12-12---12-12-12---10-10-10----10-10-10----9-9-9----9-9-9-|
-------------8---------------------------------------------------|
-----------------------------------11--------------------9-------|
--8---------------------9----------------------11----------------|
-----------------------------------------------------------------|
-----------------------------------------------------------------|


                                                   
----7-7-7---7-7-7---9-9-9---9-9-9-----------------|
------------------7-----------------6-6-6---6-6-6-|
----------7---------------------------------------|
--0-----------------------0---------------7-------|
----------------------------------6---------------|
--------------------------------------------------|


                                                   
----0-0-0---0-0-0---2-2-2---4-4-4---5-5-5---7-7-7-|
--------------------------------------------------|
----------1-------2-------4-------6-------7-------|
--2-----------------------------------------------|
--------------------------------------------------|
--------------------------------------------------|


                                                   
----9-9-9---9-9-9---9-9-9---9-9-9---7-7-7---7-7-7-|
--------------------------5-----------------------|
----------9-------------------------------7-------|
------------------5---------------6---------------|
--9-----------------------------------------------|
--------------------------------------------------|


                                                   
----5-5-5---5-5-5---5-5-5---5-5-5---5-5-5---5-5-5-|
--------------------------3-------2---------------|
------------------2-------------------------------|
----------2---------------------------------------|
--0-----------------------------------------------|
------------------------------------------0-------|


                                                   
----5-5-5---5-5-5---5-5-5---5-5-5---5-5-5---5-5-5-|
--------------------------7-------5---------------|
------------------6-------------------------------|
----------7---------------------------------------|
--0-----------------------------------------------|
------------------------------------------0-------|


                                                      
----9-9-9----9-9-9---9-9-9----9-9-9----9-9-9---9-9-9-|
---------------------------12-------10---------------|
-------------------9---------------------------------|
----------11-----------------------------------------|
--0--------------------------------------------------|
---------------------------------------------0-------|


                                                                         
----12-12-12----12-12-12----12-12-12----12-12-12----12-12-12---12-12-12-|
-------------------------------------15----------14---------------------|
-------------------------14---------------------------------------------|
-------------14---------------------------------------------------------|
--0---------------------------------------------------------------------|
-------------------------------------------------------------0----------|


                                                                         
----17-17-17----17-17-17----17-17-17----17-17-17----17-17-17---17-17-17-|
-------------------------------------15----------14---------------------|
-------------------------14---------------------------------------------|
-------------14---------------------------------------------------------|
--0---------------------------------------------------------------------|
-------------------------------------------------------------0----------|


                                                                         
----17-17-17----17-17-17----17-17-17----17-17-17----17-17-17---17-17-17-|
-------------------------------------14----------15---------------------|
-------------------------14---------------------------------------------|
-------------14---------------------------------------------------------|
--0---------------------------------------------------------------------|
-------------------------------------------------------------0----------|


   ^               ^              
--17------------|--5------------||
--14------------|--2------------||
--14------------|--2------------||
----------------|--2------------||
---0------------|--0------------||
----------------|---------------||

please rate this beautiful piece.
Добавлено: 10.07.2012
Другие материалы по этой песне:

Страница создана 23.03.2012
http://primanota.ru/agustin-barrios-mangore/contemplacion-chords.htm
Привет, Гость.
Предлагаем пройти революционный курс по гитаре.
Подарок от PrimaNota.Ru, забирай!