PrimaNota.ru - самый крупный в мире бесплатный архив песенных текстов, аккордов, табулатур и нот


Agrupación Marilyn - Que Cobarde - таба, видео

Регистрация Запомнить меня
Войти через:  Facebook Google Twitter Vk Yandex Mail.ru

Agrupación Marilyn - Que Cobarde - таба, видео

Печатать
Просмотров: 31
aca les mando un tema de agrupacion marylin,
es la primera transcripcion que hago,
el tema esta muy bueno espero que les guste...

intro

       [ch]A[/ch]
e|--0-----------|--0-----------|--0----------|--0----------|
B|----2---------|----2---------|----2--------|----2--------|
G|------2-------|------2-------|------2------|------2------|
D|--------------|--------------|-------------|-------------|
A|---------0----|---------0----|--------0----|--------0----|
E|--------------|--------------|-------------|-------------|

       [ch]E[/ch]
e|--------------|--------------|--------------|--------------|
B|--0-----------|--0-----------|--0-----------|--0-----------|
G|----1---------|----1---------|----1---------|----1---------|
D|------2-------|------2-------|------2-------|------2-------|
A|--------------|--------2-----|--------------|--------------|
E|--------0-----|--------------|--------0-----|--------0-----|

        [ch]D[/ch]
e|--2-----------|--2-----------|--2-----------|--2-----------|
B|----3---------|----3---------|----3---------|----3---------|
G|------2-------|------2-------|------2-------|------2-------|
D|--------0-----|--------0-----|--------0-----|--------0-----|
A|--------------|--------------|--------------|--------------|
E|--------------|--------------|--------------|--------------|


    [ch]A[/ch]            [ch]E[/ch]
LE ROBARON LA SONRISA
    [ch]D            MI[/ch]
LE ROBARON LA ILUSION
    [ch]A[/ch]                   [ch]E[/ch]
DE NO SER COMO TODAS LAS NIÑAS
    [ch]D                   MI[/ch]
QUE CON UN CUENTO SE DURMIO

   [ch]A[/ch]             [ch]E[/ch]
MALDITA LA NESESIDAD
           [ch]D                               MI[/ch]
POR CUAL MAMÁ POR LAS NOCHES  SE VA A TRABAJAR
       [ch]A[/ch]                     [ch]E[/ch]
UNA NOCHE MAS QUE LA DEJA CON ÉL
         [ch]D                MI[/ch]
CON SU PAPÁ QUE NO ES SU PAPÁ

    [ch]A[/ch]                    [ch]E[/ch]
LA LUZ DEL RECUERDO SE APAGÓ
      [ch]D                    MI[/ch]
LA NIÑA REZA QUE NO ENTRE OTRA VEZ
                  [ch]A[/ch]
COMO TODAS LAS NOCHES
               [ch]E[/ch]
SE METE EN SU CAMA
        [ch]D                 MI[/ch]
Y LA AMENAZA QUE NUNCA DIGA NADA.

   [ch]A[/ch]                 [ch]E[/ch]
POR FAVOR NO ME TOQUE MAS
                     [ch]D[/ch]
NO VE  QUE ESTOY LLORANDO
                 [ch]E[/ch]
YA NO ME HAGA MAS DAÑO
               [ch]A[/ch]
AYER POR LA TARDE
             [ch]E[/ch]
LE CONTE A MAMÁ
              [ch]D[/ch]
QUE USTED ME TOCA
                   [ch]E[/ch]
Y NO ME QUISO ESCUCHAR

  [ch]A[/ch]                       [ch]E[/ch]
-COMO SIEMPRE, NADIE LA ESCUCHO
         [ch]D                  MI[/ch]
OTRA HISTORIA MAS, HECHA CANCION
         [ch]A[/ch]                      [ch]E[/ch]
QUE ESTA DEDICADA PARA TODAS LAS NIÑAS
               [ch]D                        MI[/ch]
QUE FUERON ABUSADAS Y UN MAL RECUERDO QUEDÓ


ESTRIBILLO

      [ch]A[/ch]
QUE COBARDE QUE ES AQUEL
     [ch]E[/ch]
QUE PLACER PUEDE TENER
     [ch]D[/ch]
ABUSARSE DE UNA NIÑA
          [ch]E[/ch]
QUE EL MISMO LA VIO CRECER


   [ch]A[/ch]
e|--0-----------|--0-----------|--0----------|--0----------|
B|----2---------|----2---------|----2--------|----2--------|
G|------2-------|------2-------|------2------|------2------|
D|--------------|--------------|-------------|-------------|
A|---------0----|---------0----|--------0----|--------0----|
E|--------------|--------------|-------------|-------------|

       [ch]E[/ch]
e|--------------|--------------|--------------|--------------|
B|--0-----------|--0-----------|--0-----------|--0-----------|
G|----1---------|----1---------|----1---------|----1---------|
D|------2-------|------2-------|------2-------|------2-------|
A|--------------|--------------|--------------|--------------|
E|--------0-----|--------0-----|--------0-----|--------0-----|

        [ch]D[/ch]
e|--2-----------|--2-----------|--2-----------|--2-----------|
B|----3---------|----3---------|----3---------|----3---------|
G|------2-------|------2-------|------2-------|------2-------|
D|--------0-----|--------0-----|--------0-----|--------0-----|
A|--------------|--------------|--------------|--------------|
E|--------------|--------------|--------------|--------------|

AGRUPACION MARYLIN... REPITE EL PUENTEO

ESTRIBILLO

      [ch]A[/ch]
QUE COBARDE QUE ES AQUEL
     [ch]E[/ch]
QUE PLACER PUEDE TENER
     [ch]D[/ch]
ABUSARSE DE UNA NIÑA
          [ch]E[/ch]
QUE EL MISMO LA VIO CRECER...

ESTRIBILLO

      [ch]A[/ch]
QUE COBARDE QUE ES AQUEL
     [ch]E[/ch]
QUE PLACER PUEDE TENER
     [ch]D[/ch]
ABUSARSE DE UNA NIÑA
          [ch]E[/ch]
QUE EL MISMO LA VIO CRECER...


   [ch]A[/ch]
e|--0-----------|--0-----------|--0----------|--0----------|
B|----2---------|----2---------|----2--------|----2--------|
G|------2-------|------2-------|------2------|------2------|
D|--------------|--------------|-------------|-------------|
A|---------0----|---------0----|--------0----|--------0----|
E|--------------|--------------|-------------|-------------|

       [ch]E[/ch]
e|--------------|--------------|--------------|--------------|
B|--0-----------|--0-----------|--0-----------|--0-----------|
G|----1---------|----1---------|----1---------|----1---------|
D|------2-------|------2-------|------2-------|------2-------|
A|--------------|--------------|--------------|--------------|
E|--------0-----|--------0-----|--------0-----|--------0-----|

        [ch]D[/ch]
e|--2-----------|--2-----------|--2-----------|--2-----------|
B|----3---------|----3---------|----3---------|----3---------|
G|------2-------|------2-------|------2-------|------2-------|
D|--------0-----|--------0-----|--------0-----|--------0-----|
A|--------------|--------------|--------------|--------------|
E|--------------|--------------|--------------|--------------|


AGRUPACION MARYLIN... REPITE EL PUENTEO... Y TERMINA EN LA..

ESTE TEMA SE LO DEDICO A MIS AMIGOS Y AMIGAS
Y A AGUANTE EL ORIGINAL GRUPO ECLIP'C Y LOS PRIMOS DEL SANBE..
CUALQUIER DUDA ESCRIBIME...
Добавлено: 24.05.2016
Другие материалы по этой песне:
  • Аккорды и текст

Страница создана 24.05.2016
http://primanota.ru/agrupacion-marilyn/que-cobarde-chords.htm
Привет, Гость.
Предлагаем пройти революционный курс по гитаре.
Подарок от PrimaNota.Ru, забирай!