PrimaNota.ru - самый крупный в мире бесплатный архив песенных текстов, аккордов, табулатур и нот


Agrupación Marilyn - Como Fui A Enamorarme De Tí - бас-таба, видео

Регистрация Запомнить меня
Войти через:  Facebook Google Twitter Vk Yandex Mail.ru

Agrupación Marilyn - Como Fui A Enamorarme De Tí - бас-таба, видео

Печатать
Просмотров: 61
Pues esta tablatura va dedicado
para mi amiguis Clau
espero les guste y les sea util
la cancion esta padre
Intro
E|--3-33-|-------|--------|
A|-------|-35-55-|-55-55--|
D|-------|-------|--------|
G|-------|-------|--------|

                    x2
E|----7-|----7--|-5-----|-------|---------|
A|--7---|-777-7-|---4-7-|-5-----|-55-7----|
D|---9--|-------|-------|---4-7-|------4--|
G|------|-------|-------|-------|---------|

     x2       x3                          x2
E|--3-----|-------|------|----7--|-7-5-|---5-|-------|-----|-5------|
A|----2-5-|-5-----|-5-66-|-77--7-|-----|-7---|-5-----|-5-5-|---4-7--|
D|--------|---4-7-|------|-------|-----|-----|---4-7-|--4--|--------|
G|--------|-------|------|-------|-----|-----|-------|-----|--------|

Como fui a enamorarme
     x3               x3                           x2
E|--------|------|-5-----|-5-5-|-3-----|-3-44-|-5-----|-------|------|
A|--5-----|-5-32-|---4-7-|--4--|---2-5-|------|---4-7-|-5-----|-556--|
D|----4-7-|------|-------|-----|-------|------|-------|---4-7-|------|
G|--------|------|-------|-----|-------|------|-------|-------|------|

Como fui a enamorarme
     x3               x3                           x2
E|--------|-------|-5-----|-5-5-|-3-----|-3-3-|-5-----|-------|------|
A|--5-----|-5-532-|---4-7-|--4--|---2-5-|--2--|---4-7-|-5-----|-5-5--|
D|----4-7-|-------|-------|-----|-------|-----|-------|---4-7-|--4---|
G|--------|-------|-------|-----|-------|-----|-------|-------|------|

Como fui a enamoraaarme de ti
     x3               x3
E|--------|------|-5-----|-5-5-|-3----------|
A|--5-----|-5-32-|---4-7-|--4--|---2-5/10/5-|
D|----4-7-|------|-------|-----|------------|
G|--------|------|-------|-----|------------|

que mata
      x2       x3                          x2
E|--3-----|-------|------|----7--|-7-5-|---5-|-------|-----|----------|
A|----2-5-|-5-----|-5-66-|-77--7-|-----|-7---|-5-----|-5-5-|-5556667--|
D|--------|---4-7-|------|-------|-----|-----|---4-7-|--4--|----------|
G|--------|-------|------|-------|-----|-----|-------|-----|----------|

Como fui a enamorarme
     x3               x3
E|--------|-----|-345-----|-5-5-|-3-----|-3--|
A|--5-----|-5/0-|-----4-7-|--4--|---2-5-|----|
D|----4-7-|-----|---------|-----|-------|----|
G|--------|-----|---------|-----|-------|----|

que mata
      x2       x3                          x2
E|--3-----|-------|------|----7--|-7-5-|---5-|-------|--5----|
A|----2-5-|-5-----|-5-66-|-77--7-|-----|-7---|-5-----|-5-34--|
D|--------|---4-7-|------|-------|-----|-----|---4-7-|-------|
G|--------|-------|------|-------|-----|-----|-------|-------|

     x3               x3                x3
E|--------|-------|-5-----|-5-5-|-3-3-|--5-|-------|------|----------|
A|--5-----|-5-532-|---4-7-|--4--|--2--|-5--|-5-----|-5-5--|-5556667--|
D|----4-7-|-------|-------|-----|-----|----|---4-7-|--4---|----------|
G|--------|-------|-------|-----|-----|----|-------|------|----------|

Como fui a enamoraaarme de ti
     x3               x3
E|--------|------|-5-----|-5--------3--|
A|--5-----|-5-32-|---4-7-|--------5----|
D|----4-7-|------|-------|--5/765------|
G|--------|------|-------|-------------|

que mata
      x2       x3                          x2
E|--3-----|-------|------|----7--|-7-5-|---5-|-------|------|----------|
A|----2-5-|-5-----|-5-66-|-77--7-|-----|-7---|-5-----|-575--|-5556667--|
D|--------|---4-7-|------|-------|-----|-----|---4-7-|------|----------|
G|--------|-------|------|-------|-----|-----|-------|------|----------|

Como fui a enamorarme
     x3               x3
E|--------|-----|-345-----|-5-5-|-3-----|-3--|
A|--5-----|-5/0-|-----4-7-|--4--|---2-5-|----|
D|----4-7-|-----|---------|-----|-------|----|
G|--------|-----|---------|-----|-------|----|

que mata
      x2       x3                          x2
E|--3-----|-------|------|----7--|-7-5-|---5-|-------|-------|
A|----2-5-|-5-----|-5-66-|-77--7-|-----|-7---|-5-----|-557---|
D|--------|---4-7-|------|-------|-----|-----|---4-7-|----4--|
G|--------|-------|------|-------|-----|-----|-------|-------|

tufi
E|----|------|-33-5-|-4--5-|------|------|-5-----|-555------|
A|----|-5----|------|--7---|-47-5-|----5-|---3-5-|----5557--|
D|--5-|--7-5-|------|------|------|-47---|-------|----------|
G|----|------|------|------|------|------|-------|----------|

atte. miauricio gatolar
Добавлено: 09.03.2016
Другие материалы по этой песне:
  • Аккорды и текст

Страница создана 09.03.2016
http://primanota.ru/agrupacion-marilyn/como-fui-a-enamorarme-de-ti-chords.htm
Привет, Гость.
Предлагаем пройти революционный курс по гитаре.
Подарок от PrimaNota.Ru, забирай!