PrimaNota.ru - самый крупный в мире бесплатный архив песенных текстов, аккордов, табулатур и нот


Agraceful - Revelations - таба, видео

Регистрация Запомнить меня
Войти через:  Facebook Google Twitter Vk Yandex Mail.ru

Agraceful - Revelations - таба, видео

Печатать
Просмотров: 136
Уроки эстрадного вокала в Санкт-Петербурге
Agraceful - Revelations

Any questions, add me on msn whatever: swalshy80700@hotmail.co.uk

Drop C (CGCFAD)


Intro

Guitar 1
D||-------------------------------------------------|
A||-------4-4---------------------------------------|
F||-------7-7---------------------------------------| x4
C||-1-0---------2-1--0------------------------------|
G||-1-0---------2-1--0------------------------------|
C||-1-0---------2-1--0---/5p3p0---------------------|


Guitar 2
D||-------------------------------------------------|
A||-------4-4---------------------------------------|
F||-------7-7---------------------------------------| 
C||-1-0---------2-1--0------------------------------|
G||-1-0---------2-1--0------------------------------|
C||-1-0---------2-1--0--------1-2b------------------|

D||-------------------------------------------------|
A||-------4-4---------------------------------------|
F||-------7-7---------------------------------------|
C||-1-0---------2-1--0------------------------------|x2
G||-1-0---------2-1--0------------------------------|
C||-1-0---------2-1--0------------------------------|




Guitar 1 & 2 just listen to the rhythm etc.
D||-------------------------------------|
A||-----4444444----444444---------------|
F||-----7777777----777777---------------| x4
C||--0----------0-0---------------------|
G||--0----------0-0---------------------|
C||--0----------0-0---------------------|
    

D||---------------|
A||---------------|
F||---------------| 
C||-00-0-0-00-----|
G||-00-0-0-00-----|
C||-00-0-0-00-----|
    .. . . .. 

Chorus

Guitar 1
D||------------------|
A||------------------|
F||-7---------10-----| 
C||--x12--------x12--|x4
G||-5---------8------|
C||------------------|

Guitar 2
D||------------------|
A||------------------|
F||------------------| 
C||-8--5------0--0---|x4
G||-8--5------0--0---|
C||-8--5------0--0---|


Intro again

Guitar 1
D||-------------------------------------------------|
A||-------4-4---------------------------------------|
F||-------7-7---------------------------------------| x4
C||-1-0---------2-1--0------------------------------|
G||-1-0---------2-1--0------------------------------|
C||-1-0---------2-1--0---/5p3p0---------------------|

Guitar 2
D||-------------------------------------------------|
A||-------4-4---------------------------------------|
F||-------7-7---------------------------------------|
C||-1-0---------2-1--0------------------------------|
G||-1-0---------2-1--0------------------------------|
C||-1-0---------2-1--0--------1-2b------------------|

D||-------------------------------------------------|
A||-------4-4---------------------------------------|
F||-------7-7---------------------------------------|
C||-1-0---------2-1--0------------------------------| x2
G||-1-0---------2-1--0------------------------------|
C||-1-0---------2-1--0------------------------------|


Interlude before chorus - listen to the rhythm, there's a harmonic <3>

D||--------------------------------------|
A||--------------------------------------|
F||--------------------------------------| 
C||-0--0--<3>-00---0--0------00------0---|
G||-0--0------00---0--0------00------0---|
C||-0--0------00---0--0------00------0---|


Chorus

Guitar 1
D||------------------|
A||------------------|
F||-7---------10-----| 
C||--x12--------x12--|x4
G||-5---------8------|
C||------------------|

Guitar 2 
D||------------------|
A||------------------|
F||------------------| 
C||-8--5------0--0---|x4
G||-8--5------0--0---|
C||-8--5------0--0---|


outro – piano part

Guitar 1
D||--13---15---12---13---|
A||--15---17---13---15---|
F||--14---14---14---14---| 
C||----------------------| x2
G||----------------------|
C||----------------------|


Outro

Guitar 1 (w/piano)
D||-13----------15----------12----------13----|
A||-15----------17----------13----------15----|
F||-14----------14----------14----------14----| 
C||-0-----------0-----------0-----------0-----|
G||-0-----------0-----------0-----------0-----|
C||-0-----------0-----------0-----------0-----|


second time guitar 2 comes in

Guitar 1 (w/piano)
D||-13----------15----------12----------13----|
A||-15----------17----------13----------15----|
F||-14----------14----------14----------14----| 
C||-0-----------0-----------0-----------0-----|
G||-0-----------0-----------0-----------0-----|
C||-0-----------0-----------0-----------0-----|

Guitar 2
D||--------------------------------------------|
A||--------------------------------------------|
F||--------------------------------------------| 
C||-0--0--0--0--0--0--0--0--0--0--0--0--0--0---|
G||-0--0--0--0--0--0--0--0--0--0--0--0--0--0---|
C||-0--0--0--0--0--0--0--0--0--0--0--0--0--0---|


There you have it
Добавлено: 14.04.2012
Другие материалы по этой песне:
  • Аккорды и текст

Страница создана 14.04.2012
http://primanota.ru/agraceful/revelations-chords.htm
Привет, Гость.
Предлагаем пройти революционный курс по гитаре.
Подарок от PrimaNota.Ru, забирай!