PrimaNota.ru - самый крупный в мире бесплатный архив песенных текстов, аккордов, табулатур и нот


Agraceful - In Oceans - таба, видео

Регистрация Запомнить меня
Войти через:  Facebook Google Twitter Vk Yandex Mail.ru

Agraceful - In Oceans - таба, видео

Печатать
Просмотров: 137
Уроки эстрадного вокала в Санкт-Петербурге
----------------------------------------------------------------------------
                             IN OCEANS - Agraceful
----------------------------------------------------------------------------
Tabbed by:Clayton777
Email:

I'm only doing lead for now, comment, correct, and rate, this is my 2nd tab.

Tuning:Drop C

Intro...Play twice,
e|-------------------------------------------------------------------------|
B|-------------------------------------------------------------------------|
G|--10-----9------12-------------------------------------------------------|
D|--x--x8--x--x8--x--x16---------------------------------------------------|
A|--8------7------10-------------------------------------------------------|
E|-------------------------------------------------------------------------|


  Verse 1
e|-------------------------------------------------------------------------|
B|-------------------------------------------------------------------------|
G|-------------------------------------------------------------------------|
D|-------------------------------------------------------------------------|
A|-00---0000--00-----------------------------------------------------------|
E|-00---0000--00-----------------------------------------------------------|
PM **   ****  **

e|-------------------------------------------------------------------------|
B|-------------------------------------------------------------------------|
G|-------------------------------------------------------------------------|
D|-0~----------------------------------------------------------------------|
A|-0~----------------------------------------------------------------------|
E|-0~----------------------------------------------------------------------|

  Chorus, Repeat as needed,
e|-------------------------------------------------------------------------|
B|-0-6-8-0-5-7-0-6-8-0-5-7-0-3-5-3-----------------------------------------|
G|-------------------------------------------------------------------------|
D|-------------------------------------------------------------------------|
A|-------------------------------------------------------------------------|
E|-------------------------------------------------------------------------|

   Play two lines below this together, twice.
e|---------------------------------------------------------------------------|
B|---------------------------------------------------------------------------|
G|---------------------------------------------------------------------------|
D|--0-101010-10~-888-8~-0-888-8~-101010--0-101010-10~-888-8~-0---------------|
A|--0-101010-10~-888-8~-0-888-8~-101010--0-101010-10~-888-8~-0---------------|
E|--0-101010-10~-888-8~-0-888-8~-101010--0-101010-10~-888-8~-0---------------|
PM     * * *     ***      ***               * * *     ***

e|-------------------------------------------------------------------------|
B|-------------------------------------------------------------------------|
G|-------------------------------------------------------------------------|
D|-888-8~-101010-----------------------------------------------------------|
A|-888-8~-101010-----------------------------------------------------------|
E|-888-8~-101010-----------------------------------------------------------|
PM ***

  Play 4 times,

e|-------------------------------------------------------------------------|
B|-------------------------------------------------------------------------|
G|--10----7------12--------------------------------------------------------|
D|--x-x8--x-x8----x-x16----------------------------------------------------|
A|--8-----5------10--------------------------------------------------------|
E|-------------------------------------------------------------------------|

 Play 2 times,
e|-------------------------------------------------------------------------|
B|-------------------------------------------------------------------------|
G|-------------------------------------------------------------------------|
D|--12~--12///--0~---------------------------------------------------------|
A|--12~--12///--0~---------------------------------------------------------|
E|--12~--12///--0~---------------------------------------------------------|

Play Chorus

  Play 4 times,
e|-------------------------------------------------------------------------|
B|-------------------------------------------------------------------------|
G|--10----7------12--------------------------------------------------------|
D|--x-x8--x-x8----x-x16----------------------------------------------------|
A|--8-----5------10--------------------------------------------------------|
E|-------------------------------------------------------------------------|

  Play twice,
e|-------------------------------------------------------------------------|
B|-------------------------------------------------------------------------|
G|-------------------------------------------------------------------------|
D|-0-----8-----10----------------------------------------------------------|
A|-0-x8--8-x4--10-x4-------------------------------------------------------|
E|-0-----8-----10----------------------------------------------------------|

  Repeat as needed,
e|-------------------------------------------------------------------------|
B|-------------------------------------------------------------------------|
G|-------------------------------------------------------------------------|
D|-------------------------------------------------------------------------|
A|-00-0000-00-00-----------------------------------------------------------|
E|-00-0000-00-00-----------------------------------------------------------|
PM ** **** ** **

  Play 4 times, I'm not sure about the chords here,
e|------x--------x----------------------------------------------------|
B|------x--------x----------------------------------------------------|
G|------x101010--x-7-7-7----------------------------------------------|
D|-0~---x-x-x-x--x-x-x-x----------------------------------------------|
A|-0~---x-8-8-8--x-5-5-5----------------------------------------------|
E|-0~---x--------x----------------------------------------------------|

  End on..
e|-------------------------------------------------------------------------|
B|-------------------------------------------------------------------------|
G|-------------------------------------------------------------------------|
D|--0~---------------------------------------------------------------------|
A|--0~---------------------------------------------------------------------|
E|--0~---------------------------------------------------------------------|

| /  slide up
| \  slide down
| h  hammer-on
| p  pull-off
| ~  vibrato
| +  harmonic
| x  Mute note
============================================================================
Добавлено: 13.06.2012
Вам также может быть интересно:
Другие материалы по этой песне:
  • Аккорды и текст

Страница создана 13.06.2012
http://primanota.ru/agraceful/in-oceans-chords.htm
Привет, Гость.
Предлагаем пройти революционный курс по гитаре.
Подарок от PrimaNota.Ru, забирай!