PrimaNota.ru - самый крупный в мире бесплатный архив песенных текстов, аккордов, табулатур и нот


Agraceful - A Prophecy In Reverie - таба, видео

Регистрация Запомнить меня
Войти через:  Facebook Google Twitter Vk Yandex Mail.ru

Agraceful - A Prophecy In Reverie - таба, видео

Печатать
Просмотров: 102
Agraceful – A prophecy in Reverie

This tab is in Drop C, from the awesome band Agraceful.

Guitar 1
D||---------------------------------------------------------|
A||--10-10-10-10---10-10-10-10---10-10-10-10---10-10-10-10--|
F||--10-10-10-10---10-10-10-10---7--7--7--7----10-10-10-10--| x3
C||--0--0--0--0----0--0--0--0----0--0--0--0----0--0--0--0---|
G||--0--0--0--0----0--0--0--0----0--0--0--0----0--0--0--0---|
C||--0--0--0--0----0--0--0--0----0--0--0--0----0--0--0--0---|


Verse (repeat twice)
D||-------------------------------------|
A||--3/6h8------------------------------|
F||---------5h7—-0h3h5—-5\3--5/7\5------|
C||-------------------------------------|
G||-------------------------------------|
C||-------------------------------------|

D||-------------------------------------|
A||--3/6h8------------------------------|
F||---------5h7--0h3h5--5\3--3/5--------|
C||-------------------------------------|
G||-------------------------------------|
C||-------------------------------------|


Interlude
D||-------------|
A||-------------|
F||-2----2------|
C||-0----0------|
G||-0----0------|
C||-0----0------|


Chorus (repeat 4 times)
D||--------------------------------------|
A||--------------------------------------|
F||-14-14-14-14-14-14--12-12/17-17-17-17-|
C||--------------------------------------|
G||-12-12-12-12-12-12--10-10/15-15-15-15-|
C||--------------------------------------|

D||--------------------------------------|
A||--------------------------------------|
F||-14-14-14-14-14-14--12-12-12-12/10----|
C||--------------------------------------|
G||-12-12-12-12-12-12--10-10-10-10/8-----|
C||--------------------------------------|


Interlude after chorus - you don't have to follow the hammers and pull-offs if you don't 
too, its just the way I play it.

D||--------------------------------------------|
A||--------------------------------------------|
F||--------------------------------------------| x3
C||---0-7-8-0-5h7--0-5h3-0-3p0-2/3-------------|
G||--------------------------------------------|
C||--------------------------------------------|


Next bit
D||---------------------------------------------------|
A||-----6---------6----6------6--------6-------6---6--|
F||-----9---------9----9------9--------9-------9---9--|
C||-000----000--0----0----000----000------0-0-----0---|
G||-000----000--0----0----000----000------0-0-----0---|
C||-000----000--0----0----000----000------0-0-----0---|
    ...    ...  .    .    ...    ...      . .       .

D||--------------------------------------------|
A||-----6---------6----6------6----------------|
F||-----9---------9----9------9----------------|
C||-000-----000--0----0----000----000-0--------|
G||-000-----000--0----0----000----000-0--------|
C||-000-----000--0----0----000----000-0--------|
    ...     ...  .    .    ...    ...

D||------------------------|
A||------------------------|
F||-14/10--14/10-----------|
C||------------------0-----| x4  (fourth time, don't play 0's
G||-12/8---12/8------0-----|        straight into chorus after)
C||------------------0-----|


Chorus (repeat 4 times)
D||--------------------------------------|
A||--------------------------------------|
F||-14-14-14-14-14-14--12-12/17-17-17-17-|
C||--------------------------------------|
G||-12-12-12-12-12-12--10-10/15-15-15-15-|
C||--------------------------------------|

D||--------------------------------------|
A||--------------------------------------|
F||-14-14-14-14-14-14--12-12-12-12/10----|
C||--------------------------------------|
G||-12-12-12-12-12-12--10-10-10-10/8-----|
C||--------------------------------------|


Verse (repeat four times) – slightly different don't slide back down to 5 in first part
D||-------------------------------------|
A||--3/6h8------------------------------|
F||---------5h7—-0h3h5—-5\3--5/7--------|
C||-------------------------------------|
G||-------------------------------------|
C||-------------------------------------|

D||-------------------------------------|
A||--3/6h8------------------------------|
F||---------5h7--0h3h5--5\3--3/5--------|
C||-------------------------------------|
G||-------------------------------------|
C||-------------------------------------|


Bit before the last chorus
D||----------------------------------------------|
A||----------------------------------------------|
F||-14-14-14-14-14-14-14\12-12-12-12/14-14-14-14-|
C||----------------------------------------------| x4
G||-12-12-12-12-12-12-12\10-10-10-10/12-12-12-12-|
C||----------------------------------------------|

Chorus (repeat 4 times)
D||--------------------------------------|
A||--------------------------------------|
F||-14-14-14-14-14-14--12-12/17-17-17-17-|
C||--------------------------------------|
G||-12-12-12-12-12-12--10-10/15-15-15-15-|
C||--------------------------------------|

D||--------------------------------------|
A||--------------------------------------|
F||-14-14-14-14-14-14--12-12-12-12/10----|
C||--------------------------------------|
G||-12-12-12-12-12-12--10-10-10-10/8-----|
C||--------------------------------------|


Outro
D||------------------------------------------|
A||------------------------------------------|
F||------------------------------------------|
C||-000-000--000-000----000-000--000-000-----|
G||-000-000--000-000----000-000--000-000-----|
C||-000-000--000-000----000-000--000-000-----|
    ... ...  ... ...    ... ...  ... ...

D||-------------------------------------------|
A||-------------------------------------------|
F||-------------------------------------------|
C||-000-000--000-000----000-000--000-000---0--|
G||-000-000--000-000----000-000--000-000---0--|
C||-000-000--000-000----000-000--000-000---0--|
    ..  ..   ..  ..     ..  ..   ..  ..    .
Добавлено: 16.07.2012
Другие материалы по этой песне:
  • Аккорды и текст

Страница создана 16.07.2012
http://primanota.ru/agraceful/a-prophecy-in-reverie-chords.htm
Привет, Гость.
Предлагаем пройти революционный курс по гитаре.
Подарок от PrimaNota.Ru, забирай!