PrimaNota.ru - самый крупный в мире бесплатный архив песенных текстов, аккордов, табулатур и нот


Agony Scene - Will To Bleed - таба, видео

Регистрация Запомнить меня
Войти через:  Facebook Google Twitter Vk Yandex Mail.ru

Agony Scene - Will To Bleed - таба, видео

Печатать
Просмотров: 114
Title: Will to Bleed
Artist: The Agony Scene
Album: Get Damned

Tuning; Drop C

Thought it was about time someone tabbed this out, Enjoy!

Main Riff  play 5x
      .   . . . .  . . ...  . . ...        .   . . . . .
d------------------------------------|-----------------------------------|
A------------------------------------|-----------------------------------|
F------------------------------------|-----------------------------------|
C------------------------------------|-----------------------------------|
G-------5--------------000------000--|-------5-----------5h8-8/10\8p6p5--|
C-1p0-0---0-0-0-0--0-0-000--0-0-000--|-1p0-0---0-0-0-0-0-----------------|

Pre-chorus riff 1

d-------------------------------------------|
A-------------------------------------------|
F-------------------------------------------|
C-7777-7777-7777-7777--3333-3333--1111-111--|
G-7777-7777-7777-7777--3333-3333--1111-111--|
C-7777-7777-7777-7777--3333-3333--1111-111--|

riff 2
    ..        . . .             ..         . . .
d----------------------------|-----------------------------|
A----------------------------|---------------------88-88---|
F----------------------------|---------------------77-77---|
C-2-xx-1--4\3-1-1-1-2p1--4\3-|2-xx-1--4\3--1-1-1---66-66---|
G-2-xx-1--2\1-1-1-1-2p1--2\1-|2-xx-1--2\1--1-1-1--/77-77---|
C-2-xx-1------1-1-1-2p1------|2-xx-1-------1-1-1-----------|

    ..        . . .          Let ring
d----------------------------------|
A----------------------------------|
F----------------------------------|
C-2-xx-1--4\3-1-1-1-2p1--4\3--1--3-|
G-2-xx-1--2\1-1-1-1-2p1--2\1--1--3-|
C-2-xx-1------1-1-1-2p1-------1--3-|

Chorus Riff  x2
d-------------------------------------------------------|
A-------------------------------------------------------|
F-------------------------------------------------------|
C--5555-555-888-777--1111-111-111-555--5555-555-888-777-|
G--5555-555-555-555--1111-111-111-111--5555-555-555-555-|
C--5555-555-555-555--1111-111-111-111--5555-555-555-555-|

d------------------------------------|
A------------------------------------|
F--9999-999-10101010-101010-101010---|
C--5555-555-5-5-5-5--5-5-5--5-5-5----|
G--5555-555-5-5-5-5--5-5-5--5-5-5----|
C------------------------------------|

Main riff x4
pre-chorus riff 1+2 x1
Chorus riff x2

Breakdown x5
     ...        ...        ...        ......
d---------------------------------------------|
A---------------------------------------------|
F---------------------------------------------|
C-2--222------1-111------2-222-----1--111111--|
G-2--222------1-111------2-222-----1--111111--|
C-2--222-2p1--1-111-3p1--2-222-2p1-1--111111--|

6th time
     ...        ...      Let ring
d------------------------------|
A------------------------------|
F------------------------------|
C-2--222------1-111------1--3--|
G-2--222------1-111------1--3--|
C-2--222-2p1--1-111-3p1--1--3--|

Chorus riff x2

Breakdown Riff

last riff
     ...        ...        ...         Let ring
d---------------------------------------|
A---------------------------------------|
F---------------------------------------|
C-2--222------1-111------2-222-----1----|
G-2--222------1-111------2-222-----1----|
C-2--222-2p1--1-111-3p1--2-222-2p1-1----|


Please let me know what you think.
Добавлено: 02.04.2012
Другие материалы по этой песне:

Страница создана 02.04.2012
http://primanota.ru/agony-scene/will-to-bleed-chords.htm
Привет, Гость.
Предлагаем пройти революционный курс по гитаре.
Подарок от PrimaNota.Ru, забирай!