PrimaNota.ru - самый крупный в мире бесплатный архив песенных текстов, аккордов, табулатур и нот


Agony Scene - We Bury Our Dead At Dawn - текст песни, таба, видео

Регистрация Запомнить меня
Войти через:  Facebook Google Twitter Vk Yandex Mail.ru

Agony Scene - We Bury Our Dead At Dawn - текст песни, таба, видео

Печатать
Просмотров: 266
Уроки эстрадного вокала в Санкт-Петербурге
We Bury Our Dead at Dawn
As Tabbed by Julio

Drop-C tuning           x= Palm Mute    h= hammer-on
Heavy Distortion                p= pull-off

Intro: {Amp feedback}
d--------------------------------------------------------------|
a--------------------------------------------------------------|
f------------------7-----------------7-------------------------|
C----000--------------- 000--------------------- Repeat about--| 8x
G--- 000--------5----- 000------5------------------------------|
C----000---------------000-------------------------------------|
        xxx               xxx


pre verse: G-------4444---4444-----

Verse:
d-----------------------------------------------------------------------------|
a-----------------------------------------------------------------------------|
f-----------------------------------------------------------------------------| Repeat
C----1--0-----------1--0------------1--0-------------1--0-----1--2--3------0--|
G----1--0-----5----1--0------5----1--0-------5---- 1--0-----1--2--3------0----|
C----1--0-----------1--0-----------1--0--------------1--0-----1--2--3------0--|

pre chorus: G-------4444---4444-----

Chorus:
d--------------------------------------------------------------------------|
a--------------------------------------------------------------------------|
f--------------------------------------------------------------------------|
C-----0-0------------------0-0---------------------------------------------|rep.
G----0-0-----5----7-h8--0-0-----5---7-h8--10--8--7—8--10--8--7--h8--p7--0--|
C----0-0-------------------0-0---------------------------------------------|
       x x                 x x

Verse 2:
Guitar 1:
d----------------------------------------------|
a----------------------------------------------|
f-----------------6----------------------------|
C-----0---------6---------2-------0------------|
G-----0---------4---------2-------0------------|
C-----0--------------------2-------0-----------|
Guitar 2:
d------------------------------------------------------------|
a------------------------------------------------------------|
f------------------------------------------------------------|
C------------------------------------------------------------|
G---------5-h-8p-5h-8p-5-h8p-5-h8p-5--4-h7p-4-h7p-4h7p-4-h7--|
C------------------------------------------------------------|

d-------------------------------------------------------------|
a-------------------------------------------------------------|
f-------------------------------------------------------------|
C-------------------------------------------------------------|
G---8--h10p--8—h10p-8—h10p--8-h10p--5-h7p--5-h7p—5-h7p—5-h7p--|
C-------------------------------------------------------------|
Repeat

Then both guitars play guitar 1's part (above) palm-muted and stacatto-style.
Repeat Chorus and end on

d----------------------------------------------|
a----------------------------------------------|
f----------------------------------------------|
C---- 0----------------------------------------|
G---- 0----------------------------------------|
C-----0----------------------------------------|......duh
Добавлено: 07.05.2012
Другие материалы по этой песне:

Страница создана 09.03.2012
http://primanota.ru/agony-scene/we-bury-our-dead-at-dawn-chords.htm
Привет, Гость.
Предлагаем пройти революционный курс по гитаре.
Подарок от PrimaNota.Ru, забирай!