PrimaNota.ru - самый крупный в мире бесплатный архив песенных текстов, аккордов, табулатур и нот


Agony Scene - Suffer - таба, видео

Регистрация Запомнить меня
Войти через:  Facebook Google Twitter Vk Yandex Mail.ru

Agony Scene - Suffer - таба, видео

Печатать
Просмотров: 127
Авторы музыки: The Agony Scene
Авторы текста: The Agony Scene
The Agony Scene - Suffer
Tuning - Drop-B

Tabbed By Logan

Intro - Heavy Distortion

C#|-----------------------------------------------------------|
G#|-----------------------------------------------------------|
E |-----------------------------------------------------------|
B |-----------------------------------------------------------|
F#|---------------7-7-7-7-7-7-7-----------------------4-4-4-4-|
B |-0-0-0-0-0-0-0---------------0-0-0-0-0-0-0-2-2-2-2---------|
                                                               X4
Then:

C#|---------------------------------------------------------|
G#|---------------------------------------------------------|
E |---------------------------------------------------------|
B |---------------------------------------------------------|
F#|-----------------------------------------8-8-8-8-7-7-7-7-|
B |-PM-0--0-0-0--0-0-0-0-0-0--0-0-0--0-0-0-0----------------|

C#|------------------------------------------------------|
G#|------------------------------------------------------|
E |------------------------------------------------------|
B |------------------------------------------pm-1-pm-1-1-|
F#|------------------------------------------pm-1-pm-1-1-|
B |-PM-0--0-0-0--0-0-0-0-0-0--0-0-0--0-0-0-0-pm-1-pm-1-1-|
                                                       X2
Then

C#|
G#|
E |
B |-5-slide-2--0-0-0-0-0--0-2-0-2-3--|
F#|-5-slide-2--0-0-0-0-0--0-2-0-2-3--|
B |-5-slide-2--0-0-0-0-0--0-2-0-2-3--| X3

C#|
G#|
E |
B |-2-3-0-3-4-0-5-4-0-3-4-|
F#|-2-3-0-3-4-0-5-4-0-3-4-|
B |-2-3-0-3-4-0-5-4-0-3-4-|

            repeat this and the part above it 2 times

Chrous

C#|----------------------------------------------------------|
G#|----------------------------------------------------------|
E |----------------------------------------------------------|
B |---3------------------------------------------------------|
F#|----------------------------------------------------------|
B |-0---0-1^bend(X3)-then(Palm Mute)-3-3-3-2-2-2-1-1-1-0-0-0-|
                                 Repeat this all 4 times
            Then Repeat the whole thing starting from the intro

Bridge

C#|-------|
G#|-------|
E |-------|
B |-0-3-5-|
F#|-0-3-5-|
B |-0-3-5-|   Listen to the song to figure out how this part sounds


Then the last chrous

C#|----------------------------------------------------------|
G#|----------------------------------------------------------|
E |----------------------------------------------------------|
B |---3------------------------------------------------------|
F#|----------------------------------------------------------|
B |-0---0-1^bend(X3)-then(Palm Mute)-3-3-3-2-2-2-1-1-1-0-0-0-|

Repeat all x4

then last riff at the very end is

C#|-------------------------------------------------------|
G#|-------------------------------------------------------|
E |-------------------------------------------------------|
B |-----------------------------------------------------0-|
F#|-----------------------------------------------------0-|
B |-3-3-3-2-2-2-1-1-1-0-0-0--3-3-3-2-2-2-1-1-1-0-0-0-0--0-|

end
Добавлено: 06.03.2012
Другие материалы по этой песне:

Страница создана 06.03.2012
http://primanota.ru/agony-scene/suffer-chords.htm
Привет, Гость.
Предлагаем пройти революционный курс по гитаре.
Подарок от PrimaNota.Ru, забирай!