PrimaNota.ru - самый крупный в мире бесплатный архив песенных текстов, аккордов, табулатур и нот


Agony Scene - Screams Turn To Silence - таба, бас-таба, видео

Регистрация Запомнить меня
Войти через:  Facebook Google Twitter Vk Yandex Mail.ru

Agony Scene - Screams Turn To Silence - таба, бас-таба, видео

Печатать
Просмотров: 147
Авторы музыки: The Agony Scene
Авторы текста: The Agony Scene
Screams Turn to Silence                             
The Agony Scene
guitar 1



            
      E                                             E  E  E  E   
C#||------------------------------------------------------------|
G#||------------------------------------------------------------|
E ||------------------------------------------------------------|
B ||------------------------------------------------6--6--6-----|
F#||------------------------------------------------6--6--6--5--|
B ||------------------------------------------------6--6--6--0--|


     PM    PM          PM           PM    PM          PM      
  E  E  E  E  S  S  E  E  E      E  E  E  E  S  S  E  E  E    
------------------------------|------------------------------|
------------------------------|------------------------------|
------------------------------|------------------------------|
------------------------------|------------------------------|
--L-----5-----5h-8p-5-----4~--|--L-----5-----5h-8p-5-----3~--|
--L--0-----0-----------0------|-----0-----0-----------0------|


     PM    PM          PM             PM         PM      
  E  E  E  E  S  S  E  E  E     E  E  E  Q    E  E  E    
-----------------------------|--------------------------|
-----------------------------|--------------------------|
-----------------------------|--------------------------|
-----------------------------|--------------------------|
--L-----5-----5h-8p-5-----3--|--L--3-----2----2-----5~--|
-----0-----0-----------0--3--|--L--3--0--2----2--0------|


     PM    PM          PM           PM    PM          PM      
  E  E  E  E  S  S  E  E  E      E  E  E  E  S  S  E  E  E    
------------------------------|------------------------------|
------------------------------|------------------------------|
------------------------------|------------------------------|
------------------------------|------------------------------|
--L-----5-----5h-8p-5-----4~--|--L-----5-----5h-8p-5-----3~--|
-----0-----0-----------0------|-----0-----0-----------0------|


     PM    PM          PM             PM         PM      
  E  E  E  E  S  S  E  E  E     E  E  E  Q    E  E  E    
-----------------------------|--------------------------|
-----------------------------|--------------------------|
-----------------------------|--------------------------|
-----------------------------|--------------------------|
--L-----5-----5h-8p-5-----3--|--L--3-----2----2-----5~--|
-----0-----0-----------0--3--|--L--3--0--2----2--0------|


     PM    PM          PM           PM    PM          PM      
  E  E  E  E  S  S  E  E  E      E  E  E  E  S  S  E  E  E    
------------------------------|------------------------------|
------------------------------|------------------------------|
------------------------------|------------------------------|
------------------------------|------------------------------|
--L-----5-----5h-8p-5-----4~--|--L-----5-----5h-8p-5-----3~--|
-----0-----0-----------0------|-----0-----0-----------0------|


     PM    PM          PM             PM         PM      
  E  E  E  E  S  S  E  E  E     E  E  E  Q    E  E  E    
-----------------------------|--------------------------|
-----------------------------|--------------------------|
-----------------------------|--------------------------|
-----------------------------|--------------------------|
--L-----5-----5h-8p-5-----3--|--L--3-----2----2-----5~--|
-----0-----0-----------0--3--|--L--3--0--2----2--0------|


     PM    PM          PM           PM    PM          PM      
  E  E  E  E  S  S  E  E  E      E  E  E  E  S  S  E  E  E    
------------------------------|------------------------------|
------------------------------|------------------------------|
------------------------------|------------------------------|
------------------------------|------------------------------|
--L-----5-----5h-8p-5-----4~--|--L-----5-----5h-8p-5-----3~--|
-----0-----0-----------0------|-----0-----0-----------0------|


     PM    PM          PM             PM         PM     
  E  E  E  E  S  S  E  E  E     E  E  E  Q    E  E  E   
-----------------------------|-------------------------|
-----------------------------|-------------------------|
-----------------------------|-------------------------|
-----------------------------|----------------------0--|
--L-----5-----5h-8p-5-----3--|--L--3-----2----2-----0--|
-----0-----0-----------0--3--|--L--3--0--2----2--0--0--|


  palm muting on zeros                                              
  E                    E  E  Q.     E  E     E  E  E  Q.     E  E   
------------------------------------------|------------------------|
------------------------------------------|------------------------|
------------------------------------------|------------------------|
-----------------------0--0---------0--0--|-----0--0---------0--0--|
-----------------------0--0---------0--0--|-----0--0---------0--0--|
-----------------------0--0---------0--0--|-----0--0---------0--0--|


                                 PM         PM                              
  E  E  E  Q.     E  E     E  E  E  Q    E  E  E     E  E  E  Q.     E  E   
------------------------|-------------------------|------------------------|
------------------------|-------------------------|------------------------|
------------------------|-------------------------|------------------------|
-----0--0---------0-----|----------------------0--|-----0--0---------0--0--|
-----0--0---------0--3--|--L--3-----2----2-----0--|-----0--0---------0--0--|
-----0--0---------0--3--|--L--3--0--2----2--0--0--|-----0--0---------0--0--|


                                                          PM         PM     
  E  E  E  Q.     E  E     E  E  E  Q.     E  E     E  E  E  Q    E  E  E   
------------------------|------------------------|-------------------------|
------------------------|------------------------|-------------------------|
------------------------|------------------------|-------------------------|
-----0--0---------0--0--|-----0--0---------------|----------------------0--|
-----0--0---------0--0--|-----0--0------------3--|--L--3-----2----2-----0--|
-----0--0---------0--0--|-----0--0---------0--3--|--L--3--0--2----2--0--0--|


  E  E  E  E  E  E  E  E      E  E  E  E  E  E  E  E    
---------------------------|---------------------------|
---------------------------|---------------------------|
---------------------------|---------------------------|
--L------------------------|---------------------------|
--L--------------------5~--|--L--------------------4~--|
--L--0--0--0--0--0--0------|-----0--0--0--0--0--0------|


                                   PM         PM     
  E  E  E  E  E  E  E  E     E  E  E  Q    E  E  E   
--------------------------|-------------------------|
--------------------------|-------------------------|
--------------------------|-------------------------|
--------------------------|----------------------0--|
--L--------------------3--|--L--3-----2----2-----0--|
-----0--0--0--0--0--0--3--|--L--3--0--2----2--0--0--|


  E  E  E  E  E  E  E  E      E  E  E  E  E  E  E  E    
---------------------------|---------------------------|
---------------------------|---------------------------|
---------------------------|---------------------------|
--L------------------------|---------------------------|
--L--------------------5~--|--L--------------------3~--|
--L--0--0--0--0--0--0------|-----0--0--0--0--0--0------|


                                   PM         PM                             
  E  E  E  E  E  E  E  E     E  E  E  Q    E  E  E     Q    Q    Q.      E   
--------------------------|-------------------------|-----------------------|
--------------------------|-------------------------|-----------------------|
--------------------------|-------------------------|-----------------------|
--------------------------|----------------------0--|--L--------------------|
--L--------------------3--|--L--3-----2----2-----0--|--L----7----8~---------|
-----0--0--0--0--0--0--3--|--L--3--0--2----2--0--0--|--L-----------------0--|


  Q    Q    Q.      E     Q    Q    Q.      E      E  E  E   E  E  E   E  E   
-----------------------|-----------------------|-----------------------------|
-----------------------|-----------------------|-----------------------------|
-----------------------|-----------------------|-----------------------------|
-----------------------|-----------------------|-----------------------------|
-------7----8~---------|-------7----8~---------|--10--8--7------8--7---------|
--L-----------------5--|--L-----------------5--|------------12--------12--0--|


  Q    Q    Q.      E     Q    Q    Q.      E     Q    Q    Q.      E   
-----------------------|-----------------------|-----------------------|
-----------------------|-----------------------|-----------------------|
-----------------------|-----------------------|-----------------------|
-----------------------|-----------------------|-----------------------|
-------7----8~---------|-------7----8~---------|-------7----8~---------|
--L-----------------0--|--L-----------------5--|--L-----------------5--|


   E  E  E   E  E  E   E  E     Q    Q    Q.      E     Q    Q    Q.      E   
-----------------------------|-----------------------|-----------------------|
-----------------------------|-----------------------|-----------------------|
-----------------------------|-----------------------|-----------------------|
-----------------------------|-----------------------|-----------------------|
--10--8--7------8--7---------|-------7----8~---------|-------7----8~---------|
------------12--------12--0--|--L-----------------0--|--L-----------------5--|


  Q    Q    Q.      E      E  E  E   E  E  E   E  E     Q    Q    Q.      E   
-----------------------|-----------------------------|-----------------------|
-----------------------|-----------------------------|-----------------------|
-----------------------|-----------------------------|-----------------------|
-----------------------|-----------------------------|-----------------------|
-------7----8~---------|--10--8--7------8--7---------|-------7----8~---------|
--L-----------------5--|------------12--------12--0--|--L-----------------0--|


  Q    Q    Q.      E     Q    Q    Q.      E      E  E  E   E  E  E   E  E   
-----------------------|-----------------------|-----------------------------|
-----------------------|-----------------------|-----------------------------|
-----------------------|-----------------------|-----------------------------|
-----------------------|-----------------------|-----------------------------|
-------7----8~---------|-------7----8~---------|--10--8--7------8--7---------|
--L-----------------5--|--L-----------------5--|------------12--------12--0--|


  E  E  E  E  S  S  E  E  E      E  E  E  E  S  S  E  E  E   
------------------------------|-----------------------------|
------------------------------|-----------------------------|
------------------------------|-----------------------------|
------------------------------|-----------------------------|
--------5-----5h-8p-5-----4~--|--L-----5-----5h-8p-5-----3--|
--L--0-----0-----------0------|-----0-----0-----------0-----|


  E  E  E  E  S  S  E  E  E     E  E  E  Q    E  E  E   
-----------------------------|-------------------------|
-----------------------------|-------------------------|
-----------------------------|-------------------------|
-----------------------------|----------------------0--|
--L-----5-----5h-8p-5-----3--|--L--3-----2----2-----0--|
-----0-----0-----------0--3--|--L--3--0--2----2--0--0--|


  E  E  E  Q.     E  E     E  E  E  Q.     E  E     E  E  E  Q.     E  E   
------------------------|------------------------|------------------------|
------------------------|------------------------|------------------------|
------------------------|------------------------|------------------------|
-----0--0---------0--0--|-----0--0---------0--0--|-----0--0---------0-----|
-----0--0---------0--0--|-----0--0---------0--0--|-----0--0---------0--3--|
-----0--0---------0--0--|-----0--0---------0--0--|-----0--0---------0--3--|


  E  E  E  Q    E  E  E     E  E  E  Q.     E  E     E  E  E  Q.     E  E   
-------------------------|------------------------|------------------------|
-------------------------|------------------------|------------------------|
-------------------------|------------------------|------------------------|
----------------------0--|-----0--0---------0--0--|-----0--0---------0--0--|
--L--3-----2----2-----0--|-----0--0---------0--0--|-----0--0---------0--0--|
--L--3--0--2----2--0--0--|-----0--0---------0--0--|-----0--0---------0--0--|


  E  E  E  Q.     E  E     E  E  E  Q    E  E  E     E  E  E  E  E  E  E  E    
------------------------|-------------------------|---------------------------|
------------------------|-------------------------|---------------------------|
------------------------|-------------------------|---------------------------|
-----0--0---------0-----|----------------------0--|--L------------------------|
-----0--0---------0--3--|--L--3-----2----2-----0--|--L--------------------5~--|
-----0--0---------0--3--|--L--3--0--2----2--0--0--|--L--0--0--0--0--0--0------|


  E  E  E  E  E  E  E  E      E  E  E  E  E  E  E  E   
---------------------------|--------------------------|
---------------------------|--------------------------|
---------------------------|--------------------------|
---------------------------|--------------------------|
--L--------------------4~--|--L--------------------3--|
-----0--0--0--0--0--0------|-----0--0--0--0--0--0--3--|


        PM         PM                                 
  E  E  E  Q    E  E  E     E  E  E  E  E  E  E  E    
-------------------------|---------------------------|
-------------------------|---------------------------|
-------------------------|---------------------------|
----------------------0--|--L------------------------|
--L--3-----2----2-----0--|--L--------------------5~--|
--L--3--0--2----2--0--0--|--L--0--0--0--0--0--0------|


  E  E  E  E  E  E  E  E      E  E  E  E  E  E  E  E   
---------------------------|--------------------------|
---------------------------|--------------------------|
---------------------------|--------------------------|
---------------------------|--------------------------|
--L--------------------3~--|--L--------------------3--|
-----0--0--0--0--0--0------|-----0--0--0--0--0--0--3--|


        PM         PM                                                     
  E  E  E  Q    E  E  E     Q    Q    Q.      E     Q    Q    Q.      E   
-------------------------|-----------------------|-----------------------|
-------------------------|-----------------------|-----------------------|
-------------------------|-----------------------|-----------------------|
-------------------------|-----------------------|-----------------------|
--L--3-----2----2--------|-------7----8~---------|-------7----8~---------|
--L--3--0--2----2--0--0--|--L-----------------0--|--L-----------------5--|


  Q    Q    Q.      E      E  E  E   E  E  E   E  E     Q    Q    Q.      E   
-----------------------|-----------------------------|-----------------------|
-----------------------|-----------------------------|-----------------------|
-----------------------|-----------------------------|-----------------------|
-----------------------|-----------------------------|-----------------------|
-------7----8~---------|--10--8--7------8--7---------|-------7----8~---------|
--L-----------------5--|------------12--------12--0--|--L-----------------0--|


  Q    Q    Q.      E     Q    Q    Q.      E      E  E  E   E  E  E   E  E   
-----------------------|-----------------------|-----------------------------|
-----------------------|-----------------------|-----------------------------|
-----------------------|-----------------------|-----------------------------|
-----------------------|-----------------------|-----------------------------|
-------7----8~---------|-------7----8~---------|--10--8--7------8--7---------|
--L-----------------5--|--L-----------------5--|------------12--------12--0--|


  Q    Q    Q.      E     Q    Q    Q.      E     Q    Q    Q.      E   
-----------------------|-----------------------|-----------------------|
-----------------------|-----------------------|-----------------------|
-----------------------|-----------------------|-----------------------|
-----------------------|-----------------------|-----------------------|
-------7----8~---------|-------7----8~---------|-------7----8~---------|
--L-----------------0--|--L-----------------5--|--L-----------------5--|


   E  E  E   E  E  E   E  E     Q    Q    Q.      E     Q    Q    Q.      E   
-----------------------------|-----------------------|-----------------------|
-----------------------------|-----------------------|-----------------------|
-----------------------------|-----------------------|-----------------------|
-----------------------------|-----------------------|-----------------------|
--10--8--7------8--7---------|-------7----8~---------|-------7----8~---------|
------------12--------12--0--|--L-----------------0--|--L-----------------5--|


  Q    Q    Q.      E      E  E  E   E  E  E   E  E     Q    E  E  E  E  E  E   
-----------------------|-----------------------------|-------------------------|
-----------------------|-----------------------------|-------------------------|
-----------------------|-----------------------------|-------------------------|
-----------------------|--------------------------0--|--L----0-----0-----0-----|
-------7----8~---------|--10--8--7------8--7------0--|--L----0-----0-----0-----|
--L-----------------5--|------------12--------12--0--|--L----0--x--0--x--0--x--|


  E  E  E  E  E  Q    E     Q    E  E  E  E  E  E     E  Q.     E  Q    E   
-------------------------|-------------------------|-----------------------|
-------------------------|-------------------------|-----------------------|
-------------------------|-------------------------|-----------------------|
--0-----0-----0--1----0--|--L----0-----0-----0-----|--0--1------0--1----0--|
--0-----0-----0--1----0--|--L----0-----0-----0-----|--0--1------0--1----0--|
--0--x--0--x--0--1----0--|--L----0--x--0--x--0--x--|--0--1------0--1----0--|


  Q    E  E  E  E  E  E     E  E  E  E  E  Q    E     Q    E  E  E  E  E  E   
-------------------------|-------------------------|-------------------------|
-------------------------|-------------------------|-------------------------|
-------------------------|-------------------------|-------------------------|
--L----0-----0-----0-----|--0-----0-----0--1----0--|--L----0-----0-----0-----|
--L----0-----0-----0-----|--0-----0-----0--1----0--|--L----0-----0-----0-----|
--L----0--x--0--x--0--x--|--0--x--0--x--0--1----0--|--L----0--x--0--x--0--x--|


                          NOOOOO!                                              
  E  Q.     E  Q    E     Q       E  E  E  E  E  E     E  E  E  E  E  Q    E   
-----------------------|----------------------------|-------------------------|
-----------------------|----------------------------|-------------------------|
-----------------------|----------------------------|-------------------------|
--0--1------0--1----0--|--L-------0-----0-----0-----|--0-----0-----0--1----0--|
--0--1------0--1----0--|--L-------0-----0-----0-----|--0-----0-----0--1----0--|
--0--1------0--1----0--|--L-------0--x--0--x--0--x--|--0--x--0--x--0--1----0--|


  Q    E  E  E  E  E  E     E  Q.     E  Q    E     Q    E  E  E  E  E  E   
-------------------------|-----------------------|-------------------------|
-------------------------|-----------------------|-------------------------|
-------------------------|-----------------------|-------------------------|
--L----0-----0-----0-----|--0--1------0--1----0--|--L----0-----0-----0-----|
--L----0-----0-----0-----|--0--1------0--1----0--|--L----0-----0-----0-----|
--L----0--x--0--x--0--x--|--0--1------0--1----0--|--L----0--x--0--x--0--x--|


  E  E  E  E  E  Q    E     Q    E  E  E  E  E  E     E  Q.     E  Q.      
-------------------------|-------------------------|----------------------|
-------------------------|-------------------------|----------------------|
-------------------------|-------------------------|----------------------|
--0-----0-----0--1----0--|--L----0-----0-----0-----|--0--1------0--1------|
--0-----0-----0--1----0--|--L----0-----0-----0-----|--0--1------0--1------|
--0--x--0--x--0--1----0--|--L----0--x--0--x--0--x--|--0--1------0--1------|


  W                   W                   W                 
-------------------|-------------------|-------------------|
-------------------|-------------------|-------------------|
--3----------------|--L----------------|-------------------|
--3----------------|--L----------------|--3----------------|
--1----------------|--L----------------|--3----------------|
-------------------|-------------------|--3----------------|


  H        H           W                   W                 
--------------------|-------------------|-------------------|
--------------------|-------------------|-------------------|
-----------2--------|--3----------------|--L----------------|
--2--------0--------|--3----------------|--L----------------|
--2--------0--------|--1----------------|--L----------------|
--2-----------------|-------------------|-------------------|


  W                   H        H           W                 
-------------------|--------------------|-------------------|
-------------------|--------------------|-------------------|
-------------------|-----------2--------|--3----------------|
--3----------------|--2--------0--------|--3----------------|
--3----------------|--2--------0--------|--1----------------|
--3----------------|--2--------0--------|-------------------|


  W                   W                   H        H         
-------------------|-------------------|--------------------|
-------------------|-------------------|--------------------|
--L----------------|-------------------|-----------2--------|
--L----------------|--3----------------|--2--------0--------|
--L----------------|--3----------------|--2--------0--------|
-------------------|--3----------------|--2-----------------|


  W                   W                   W                 
-------------------|-------------------|-------------------|
-------------------|-------------------|-------------------|
--3----------------|--L----------------|-------------------|
--3----------------|--L----------------|--3----------------|
--1----------------|--L----------------|--3----------------|
-------------------|-------------------|--3----------------|


  H        Q.     E     E  E  E  E  S  S  E  E  E    
---------------------|------------------------------|
---------------------|------------------------------|
-----------2---------|------------------------------|
--2--------0------0--|--L---------------------------|
--2--------0------0--|--L-----5-----5h-8p-5-----4~--|
--2--------0------0--|--L--0-----0-----------0------|


  E  E  E  E  S  S  E  E  E     E  E  E  E  S  S  E  E  E   
-----------------------------|-----------------------------|
-----------------------------|-----------------------------|
-----------------------------|-----------------------------|
-----------------------------|-----------------------------|
--L-----5-----5h-8p-5-----3--|--L-----5-----5h-8p-5-----3--|
-----0-----0-----------0-----|-----0-----0-----------0--3--|


  E  E  E  Q    E  E  E     Q    Q    Q.      E     Q    Q    Q.      E   
-------------------------|-----------------------|-----------------------|
-------------------------|-----------------------|-----------------------|
-------------------------|-----------------------|-----------------------|
-------------------------|-----------------------|-----------------------|
--L--3-----2----2--------|-------7----8~---------|-------7----8~---------|
--L--3--0--2----2--0--0--|--L-----------------0--|--L-----------------5--|


  Q    Q    Q.      E      E  E  E   E  E  E   E  E     Q    Q    Q.      E   
-----------------------|-----------------------------|-----------------------|
-----------------------|-----------------------------|-----------------------|
-----------------------|-----------------------------|-----------------------|
-----------------------|-----------------------------|-----------------------|
-------7----8~---------|--10--8--7------8--7---------|-------7----8~---------|
--L-----------------5--|------------12--------12--0--|--L-----------------0--|


  Q    Q    Q.      E     Q    Q    Q.      E      E  E  E   E  E  E   E  E   
-----------------------|-----------------------|-----------------------------|
-----------------------|-----------------------|-----------------------------|
-----------------------|-----------------------|-----------------------------|
-----------------------|-----------------------|-----------------------------|
-------7----8~---------|-------7----8~---------|--10--8--7------8--7---------|
--L-----------------5--|--L-----------------5--|------------12--------12--0--|


  Q    Q    Q.      E     Q    Q    Q.      E     Q    Q    Q.      E   
-----------------------|-----------------------|-----------------------|
-----------------------|-----------------------|-----------------------|
-----------------------|-----------------------|-----------------------|
-----------------------|-----------------------|-----------------------|
-------7----8~---------|-------7----8~---------|-------7----8~---------|
--L-----------------0--|--L-----------------5--|--L-----------------5--|


   E  E  E   E  E  E   E  E     Q    Q    Q.      E     Q    Q    Q.      E   
-----------------------------|-----------------------|-----------------------|
-----------------------------|-----------------------|-----------------------|
-----------------------------|-----------------------|-----------------------|
-----------------------------|-----------------------|-----------------------|
--10--8--7------8--7---------|-------7----8~---------|-------7----8~---------|
------------12--------12--0--|--L-----------------0--|--L-----------------5--|


  Q    Q    Q.      E      E  E  E   E  E  E   E  E     Q    Q    Q.      E   
-----------------------|-----------------------------|-----------------------|
-----------------------|-----------------------------|-----------------------|
-----------------------|-----------------------------|-----------------------|
-----------------------|-----------------------------|-----------------------|
-------7----8~---------|--10--8--7------8--7---------|-------7----8~---------|
--L-----------------5--|------------12--------12--0--|--L-----------------0--|


  Q    Q    Q.      E     Q    Q    Q.      E      E  E  E   E  E  E   E  E   
-----------------------|-----------------------|-----------------------------|
-----------------------|-----------------------|-----------------------------|
-----------------------|-----------------------|-----------------------------|
-----------------------|-----------------------|-----------------------------|
-------7----8~---------|-------7----8~---------|--10--8--7------8--7---------|
--L-----------------5--|--L-----------------5--|------------12--------12--0--|


  Q    Q    Q.      E     Q    Q    Q.      E     Q    Q    Q.      E   
-----------------------|-----------------------|-----------------------|
-----------------------|-----------------------|-----------------------|
-----------------------|-----------------------|-----------------------|
-----------------------|-----------------------|-----------------------|
-------7----8~---------|-------7----8~---------|-------7----8~---------|
--L-----------------0--|--L-----------------5--|--L-----------------5--|


   E  E  E   E  E  E   E  E     Q    Q    Q.      E     Q    Q    Q.      E   
-----------------------------|-----------------------|-----------------------|
-----------------------------|-----------------------|-----------------------|
-----------------------------|-----------------------|-----------------------|
-----------------------------|-----------------------|-----------------------|
--10--8--7------8--7---------|-------7----8~---------|-------7----8~---------|
------------12--------12--0--|--L-----------------0--|--L-----------------5--|


  Q    Q    Q.      E      E  E  E   E  E  E   E  E     Q    Q    Q.      E   
-----------------------|-----------------------------|-----------------------|
-----------------------|-----------------------------|-----------------------|
-----------------------|-----------------------------|-----------------------|
-----------------------|-----------------------------|-----------------------|
-------7----8~---------|--10--8--7------8--7---------|-------7----8~---------|
--L-----------------5--|------------12--------12--0--|--L-----------------0--|


  Q    Q    Q.      E     Q    Q    Q.      E      E  E  E   E  E  E   E  E   
-----------------------|-----------------------|-----------------------------|
-----------------------|-----------------------|-----------------------------|
-----------------------|-----------------------|-----------------------------|
-----------------------|-----------------------|-----------------------------|
-------7----8~---------|-------7----8~---------|--10--8--7------8--7---------|
--L-----------------5--|--L-----------------5--|------------12--------12--0--|


  E  E  E    
-----------||
-----------||
-----------||
--------0--||
--------0--||
--L--0--0--||




Duration Legend
---------------
W - whole
H - half
Q - quarter
E - 8th
S - 16th
T - 32nd
X - 64th
. - note dotted
|-n-|  - n-tuplets


Tablature Legend
----------------
L - tied note
x - dead note
g - grace note
(n) - ghost note
> - accentuded note
NH - natural harmonic
AH - artificial harmonic
TH - tapped harmonic
SH - semi harmonic
PH - pitch harmonic
h - hammer on
p - pull off
b - bend
br - bendRelease
pb - preBend
pbr - preBendRelease
brb - bendReleaseBend
\n/ - tremolo bar dip
\n - tremolo bar dive
-/n - tremolo bar Release up
/n\ - tremolo bar inverted dip
/n - tremolo bar return
-\n - tremolo bar Release down
S - shift slide
s - legato slide
/ -  slide into from below or out of upwards
\ -  slide into from above or out of downwards
~ - vibrato
W - wide vibrato
tr - trill
TP - tremolo picking
T - tapping
S - slap
P - pop
< - fade in
^ - brush up
v - brush down
Добавлено: 08.07.2012
Другие материалы по этой песне:

Страница создана 03.04.2012
http://primanota.ru/agony-scene/screams-turn-to-silence-chords.htm
Привет, Гость.
Предлагаем пройти революционный курс по гитаре.
Подарок от PrimaNota.Ru, забирай!