PrimaNota.ru - самый крупный в мире бесплатный архив песенных текстов, аккордов, табулатур и нот


Agony Scene - Scapegoat - текст песни, таба, видео

Регистрация Запомнить меня
Войти через:  Facebook Google Twitter Vk Yandex Mail.ru

Agony Scene - Scapegoat - текст песни, таба, видео

Печатать
Просмотров: 153
Авторы музыки: The Agony Scene
Авторы текста: The Agony Scene
The Agony Scene
Scapegoat

h   hammer on
p   pull off
<5> pinch harmonic
PM  palm mute
~   let ring

Both Guitars are in Drop B

Intro
Gtr. 1
|--------------------------------------------------------------------------|
|--------------------------------------------------------------------------|
|--------------------------------------------------------------------------|
|--------------------------------------------------------------------------|
|---5h8---------5h8-5h8---------1p0-1h4-1p0---------1p0-1h4-1p0------------|
|-------0-0-0-0---------0-0-0-0-------------0-0-0-0-------------0-0-0-0----|
|PM     . . . .         . . . .             . . . .             . . . .    |
|                                                                          |
|Gtr. 2                                                                    |
|--------------------------------------------------------------------------|
|--------------------------------------------------------------------------|
|--------------------------------------------------------------------------|
|---0~---------------------------------------------------------------------|
|---0~---------------------------------------------------------------------|
|---0~---------------------------------------------------------------------|



Gtr. 1
|--------------------------------------------------------------------------|
|--------------------------------------------------------------------------|
|--------------------------------------------------------------------------|
|--------------------------------------------------------------------------|
|---5h8---------5h8-5h8---------1p0-1h4-1p0---------1p0-1h4-1p0------------|
|-------0-0-0-0---------0-0-0-0-------------0-0-0-0-------------0-0-0-0----|
|PM     . . . .         . . . .             . . . .             . . . .    |
|                                                                          |2X
|Gtr. 2                                                                    |
|--------------------------------------------------------------------------|
|--------------------------------------------------------------------------|
|--------------------------------------------------------------------------|
|---0-0-0-0-0-0-0-0--------------------------------------------------------|
|---0-0-0-0-0-0-0-0--------------------------------------------------------|
|---0-0-0-0-0-0-0-0--------------------------------------------------------|
PM  . . . . . . . .


Gtr. 1
|--------------------------------------------------------------------------|
|--------------------------------------------------------------------------|
|--------------------------------------------------------------------------|
|--------------------------------------------------------------------------|
|---5h8---------5h8-5h8---------1p0-1h4-1p0---------1p0-1h4-1p0------------|
|-------0-0-0-0---------0-0-0-0-------------0-0-0-0-------------0-0-0-0----|
|PM     . . . .         . . . .             . . . .             . . . .    |
|                                                                          |
|Gtr. 2                                                                    |
|--------------------------------------------------------------------------|
|--------------------------------------------------------------------------|
|--------------------------------------------------------------------------|
|---0-0-0-0-0-0-0-0--0~----------------------------------------------------|
|---0-0-0-0-0-0-0-0--0~----------------------------------------------------|
|---0-0-0-0-0-0-0-0--0~----------------------------------------12/---------|
PM  . . . . . . . .




Verse 2X
Gtr. 1
|---------------------------------------------------------------------------|
|---------------------------------------------------------------------------|
|---------------------------------------------------------------------------|
|---------------------------------------------------------------------------|
|---5h8---------5h8-5h8---------1p0-1h4-1p0---------1p0-1h4-1p0-------------|
|-------0-0-0-0---------0-0-0-0-------------0-0-0-0-------------0-0-0-0-----|
|PM     . . . .         . . . .             . . . .             . . . .     |
|                                                                           |2X
|Gtr. 2                                                                     |
|---------------------------------------------------------------------------|
|---------------------------------------------------------------------------|
|---------------------------------------------------------------------------|
|---------------------------------------------------------------------------|
|---5h8---------5h8-5h8---------1p0-1h4-1p0---------1p0-1h4-1p0-------------|
|-------0-0-0-0---------0-0-0-0-------------0-0-0-0-------------0-0-0-0-----|
PM      . . . .         . . . .             . . . .             . . . .


Gtr. 1
|---------------------------------------------------------------------------|
|---------------------------------------------------------------------------|
|---------------------------------------------------------------------------|
|---------------------------------------------------------------------------|
|---5h8---------5h8-5h8---------1p0-1h4-1p0---------1p0-1h4-1p0-------------|
|-------0-0-0-0---------0-0-0-0-------------0-0-0-0-------------0-0-0-0-----|
|PM     . . . .         . . . .             . . . .             . . . .     |
|                                                                           |2X
|Gtr. 2                                                                     |
|---------------------------------------------------------------------------|
|---------------------------------------------------------------------------|
|---------------------------------------------------------------------------|
|---------------------------------------------------------------------------|
|--8h12---------8h12-8h12---------1p0-1h4-1p0---------1p0-1h4-1p0-----------|
|-------0-0-0-0-----------0-0-0-0-------------0-0-0-0-------------0-0-0-0---|
PM      . . . .           . . . .             . . . .             . . . .


Chorus
Gtr. 1
|-----------------------------------|--------------------------------|
|-----------------------------------|--------------------------------|
|-----------------------------------|--------------------------------|
|-----------------------------------|--------------------------------|
|-----------------------------------|----------------------------1---|
|--1-0-0-0-0-0-0-0-0-0-0-0-0-0-0-0--|--1-0-0-0-0-0-0-0-0-0-0-0-0-1---|
|PM  . . . . . . . . . . . . . . .       . . . . . . . . . . . .     |
|                                                                    |2X
|Gtr. 2                                                              |
|--------------------------------------------------------------------|
|--------------------------------------------------------------------|
|--------------------------------------------------------------------|
|--------------------------------------------------------------------|
|--0~-------------------------------------------------------------1--|
|--0~-------------------------------------------------------------1--|



Gtr. 1
|-----------------------------|-----------------------|
|-----------------------------|-----------------------|
|-----------------------------|-----------------------|
|-----------------------<12>--|-----------------------|
|--1-0-0-0-0-0-0-0-0-0--------|--1-0-0-0-0-0-0-0-1-3--|
|--1-0-0-0-0-0-0-0-0-0--------|--1-0-0-0-0-0-0-0-1-3--|
|PM  . . . . . . . . .             . . . . . . .      |
|                                                     |4x
|Gtr. 2                                               |
|-----------------------------|-----------------------|
|-----------------------------|-----------------------|
|-----------------------------|-----------------------|
|-----------------------------|-----------------------|
|--1-0-0-0-0-0-0-0-0-0--<5>---|--1-0-0-0-0-0-0-0-1-3--|
|--1-0-0-0-0-0-0-0-0-0--------|--1-0-0-0-0-0-0-0-1-3--|
PM   . . . . . . . . .             . . . . . . .


Verse
Gtr. 1
|--------------------------------------------------------------------------|
|--------------------------------------------------------------------------|
|--------------------------------------------------------------------------|
|--------------------------------------------------------------------------|
|---5h8---------5h8-5h8---------1p0-1h4-1p0---------1p0-1h4-1p0------------|
|-------0-0-0-0---------0-0-0-0-------------0-0-0-0-------------0-0-0-0----|
|PM     . . . .         . . . .             . . . .             . . . .    |
|                                                                          |
|Gtr. 2                                                                    |
|--------------------------------------------------------------------------|
|--------------------------------------------------------------------------|
|--------------------------------------------------------------------------|
|---0~---------------------------------------------------------------------|
|---0~---------------------------------------------------------------------|
|---0~----------------------------------------------------------12/--------|


Gtr. 1
|---------------------------------------------------------------------------|
|---------------------------------------------------------------------------|
|---------------------------------------------------------------------------|
|---------------------------------------------------------------------------|
|---5h8---------5h8-5h8---------1p0-1h4-1p0---------1p0-1h4-1p0-------------|
|-------0-0-0-0---------0-0-0-0-------------0-0-0-0-------------0-0-0-0-----|
|PM     . . . .         . . . .             . . . .             . . . .     |
|                                                                           |2X
|Gtr. 2                                                                     |
|---------------------------------------------------------------------------|
|---------------------------------------------------------------------------|
|---------------------------------------------------------------------------|
|---------------------------------------------------------------------------|
|---5h8---------5h8-5h8---------1p0-1h4-1p0---------1p0-1h4-1p0-------------|
|-------0-0-0-0---------0-0-0-0-------------0-0-0-0-------------0-0-0-0-----|
PM      . . . .         . . . .             . . . .             . . . .


Gtr. 1
|---------------------------------------------------------------------------|
|---------------------------------------------------------------------------|
|---------------------------------------------------------------------------|
|---------------------------------------------------------------------------|
|---5h8---------5h8-5h8---------1p0-1h4-1p0---------1p0-1h4-1p0-------------|
|-------0-0-0-0---------0-0-0-0-------------0-0-0-0-------------0-0-0-0-----|
|PM     . . . .         . . . .             . . . .             . . . .     |
|                                                                           |2X
|Gtr. 2                                                                     |
|---------------------------------------------------------------------------|
|---------------------------------------------------------------------------|
|---------------------------------------------------------------------------|
|---------------------------------------------------------------------------|
|--8h12---------8h12-8h12---------1p0-1h4-1p0---------1p0-1h4-1p0-----------|
|-------0-0-0-0-----------0-0-0-0-------------0-0-0-0-------------0-0-0-0---|
PM      . . . .           . . . .             . . . .             . . . .



Chorus - same as last time


Interlude
Both Gtrs
|------------------------------------------|
|------------------------------------------|
|--7---7~----7-8-8-8---6---6~----6-6-6-7---|
|--5---5~----5-6-6-6---4---4~----4-4-4-5---|
|--5---5~----5-6-6-6---4---4~----4-4-4-5---|
|--5---5~----5-6-6-6---4---4~----4-4-4-5---|



Gtr. 1
|------------------------------------------|
|------------------------------------------|
|-----8t--7t--------------8t--7t-----------|
|--5t--------5t-------4t---------4t--------|
|------------------------------------------|
|------------------------------------------|
|                                          |
|                                          |
|Gtr. 2                                    |
|------------------------------------------|
|------------------------------------------|
|--7---7~----7-8-8-8---6---6~----6-6-6-7---|
|--5---5~----5-6-6-6---4---4~----4-4-4-5---|
|--5---5~----5-6-6-6---4---4~----4-4-4-5---|
|--5---5~----5-6-6-6---4---4~----4-4-4-5---|


Gtr. 1
|------------------------------------------|
|------------------------------------------|
|-----12t--7t--------------8t--7t----------|
|--5t---------6t-------4t------------------|
|------------------------------------------|
|------------------------------------------|
|                                          |
|                                          |
|Gtr. 2                                    |
|------------------------------------------|
|------------------------------------------|
|--7---7~----7-8-8-8---6---6~----6-6-6-7---|
|--5---5~----5-6-6-6---4---4~----4-4-4-5---|
|--5---5~----5-6-6-6---4---4~----4-4-4-5---|
|--5---5~----5-6-6-6---4---4~----4-4-4-5---|


Outro:
Both Gtrs
|-------------------------------------------|
|-------------------------------------------|
|-------------------------------------------|4X
|-------------------------------------------|
|--1-0-0-0-0-0-0-0-0---0-0-0----0-0-0-1-3---|
|--1-0-0-0-0-0-0-0-0---0-0-0----0-0-0-1-3---|
PM   . . . . . . . .     . .    . . .



Gtr. 1
|--------------------------------------------------------------------------|
|--------------------------------------------------------------------------|
|--------------------------------------------------------------------------|
|--------------------------------------------------------------------------|
|---5h8---------5h8-5h8---------1p0-1h4-1p0---------1p0-1h4-1p0------------|
|-------0-0-0-0---------0-0-0-0-------------0-0-0-0-------------0-0-0-0----|
|PM     . . . .         . . . .             . . . .             . . . .    |
|                                                                          |
|Gtr. 2                                                                    |
|--------------------------------------------------------------------------|
|--------------------------------------------------------------------------|
|--------------------------------------------------------------------------|
|--------------------------------------------------------------------------|
|---1-0-0-0-0-0-0-0--------------------------------------------------------|
|---1-0-0-0-0-0-0-0--------------------------------------------------------|
PM  . . . . . . . .


Gtr. 1
|--------------------------------------------------------------------------|
|--------------------------------------------------------------------------|
|--------------------------------------------------------------------------|
|--------------------------------------------------------------------------|
|---5h8---------5h8-5h8---------1p0-1h4-1p0---------1p0-1h4-1p0------------|
|-------0-0-0-0---------0-0-0-0-------------0-0-0-0-------------0-0-0-0----|
|PM     . . . .         . . . .             . . . .             . . . .    |
|                                                                          |
|Gtr. 2                                                                    |
|--------------------------------------------------------------------------|
|--------------------------------------------------------------------------|
|--------------------------------------------------------------------------|
|--------------------------------------------------------------------------|
|---1-0-0-0-0-0-0-0--------------------------------------------------------|
|---1-0-0-0-0-0-0-0---------------------------------------------12/--------|
PM  . . . . . . . .


Gtr. 1
|---------------------------------------------------------------------------|
|---------------------------------------------------------------------------|
|---------------------------------------------------------------------------|
|---------------------------------------------------------------------------|
|---5h8---------5h8-5h8---------1p0-1h4-1p0---------1p0-1h4-1p0-------------|
|-------0-0-0-0---------0-0-0-0-------------0-0-0-0-------------0-0-0-0-----|
|PM     . . . .         . . . .             . . . .             . . . .     |
|                                                                           |2X
|Gtr. 2                                                                     |
|---------------------------------------------------------------------------|
|---------------------------------------------------------------------------|
|---------------------------------------------------------------------------|
|---------------------------------------------------------------------------|
|---5h8---------5h8-5h8---------1p0-1h4-1p0---------1p0-1h4-1p0-------------|
|-------0-0-0-0---------0-0-0-0-------------0-0-0-0-------------0-0-0-0-----|
PM      . . . .         . . . .             . . . .             . . . .



Gtr. 1
|---------------------------------------------------------------------------|
|---------------------------------------------------------------------------|
|---------------------------------------------------------------------------|
|---------------------------------------------------------------------------|
|---5h8---------5h8-5h8---------1p0-1h4-1p0---------1p0-1h4-1p0-------------|
|-------0-0-0-0---------0-0-0-0-------------0-0-0-0-------------0-0-0-0-----|
|PM     . . . .         . . . .             . . . .             . . . .     |
|                                                                           |2X
|Gtr. 2                                                                     |
|---------------------------------------------------------------------------|
|---------------------------------------------------------------------------|
|---------------------------------------------------------------------------|
|---------------------------------------------------------------------------|
|--8h12---------8h12-8h12---------1p0-1h4-1p0---------1p0-1h4-1p0-----------|
|-------0-0-0-0-----------0-0-0-0-------------0-0-0-0-------------0-0-0-0---|
PM      . . . .           . . . .             . . . .             . . . .



Gtr. 1
|-----------------------------|-----------------------|
|-----------------------------|-----------------------|
|-----------------------------|-----------------------|
|-----------------------<12>--|-----------------------|
|--1-0-0-0-0-0-0-0-0-0--------|--1-0-0-0-0-0-0-0-1-3--|
|--1-0-0-0-0-0-0-0-0-0--------|--1-0-0-0-0-0-0-0-1-3--|
|PM  . . . . . . . . .             . . . . . . .      |
|                                                     |4x
|Gtr. 2                                               |
|-----------------------------|-----------------------|
|-----------------------------|-----------------------|
|-----------------------------|-----------------------|
|-----------------------------|-----------------------|
|--1-0-0-0-0-0-0-0-0-0--<5>---|--1-0-0-0-0-0-0-0-1-3--|
|--1-0-0-0-0-0-0-0-0-0--------|--1-0-0-0-0-0-0-0-1-3--|
PM   . . . . . . . . .             . . . . . . .



Both Gtrs
|-------|
|-------|
|-------|
|---0---|
|---0---|
|---0---|
Добавлено: 04.06.2012
Другие материалы по этой песне:

Страница создана 10.03.2012
http://primanota.ru/agony-scene/scapegoat-chords.htm
Привет, Гость.
Предлагаем пройти революционный курс по гитаре.
Подарок от PrimaNota.Ru, забирай!