PrimaNota.ru - самый крупный в мире бесплатный архив песенных текстов, аккордов, табулатур и нот


Agony Scene - Sacrifice - таба, видео

Регистрация Запомнить меня
Войти через:  Facebook Google Twitter Vk Yandex Mail.ru

Agony Scene - Sacrifice - таба, видео

Печатать
Просмотров: 186
Уроки эстрадного вокала в Санкт-Петербурге
Авторы музыки: The Agony Scene
Авторы текста: The Agony Scene
----------------------------------------------------------------------------
                           Sacrifice-The Agony Scene
----------------------------------------------------------------------------
Tabbed By: Isai

Tunning: Drop B

intro
|---------------------------------------------------------------------------|
|---------------------------------------------------------------------------|
|---------------------------------------------------------------------------|
|---------------------------------------------------------------------------|
|-----------5-------5-----8-6-5~------5-------5-----------------------------|
|----0-0-0----0-0-0---0-0-------0-0-0---0-0-0---0--6-6-6-6-5-5-3------------|


|---------------------------------------------------------------------------|
|---------------------------------------------------------------------------|
|---------------------------------------------------------------------------|
|---------------------------------------------------------------------------|
|-------5----5---5-----8-6-5----3----[2]~-----------------------------------|
|---0-0---0---0----0-0----------3-------------------------------------------|

verse
|---------------------------------------------------------------------------|
|---------------------------------------------------------------------------|
|---------------------------------------------------------------------------|
|---------------------------------------------------------------------------|
|-------5----5---5-----8-6-5~---------5-------5-----------------------------|
|---0-0---0---0----0-0---------0-0-0---0-0-0---0-6-6-6-6-5-5-3--------------|


|---------------------------------------------------------------------------|
|---------------------------------------------------------------------------|
|---------------------------------------------------------------------------|
|---------------------------------------------------------------------------|
|-------5----5---5-----8-6-5~-----------------------------------------------|
|---0-0---0---0----0-0--------1-3--0-0-0-0-0--8-10--0-0-0-12\---------------|

chorus
|---------------------------------------------------------------------------|
|---------------------------------------------------------------------------|
|---------------------------------------------------------------------------|
|---------------------------------------------------------------------------|
|--0--------------3--5-------------------------------------------5-5-5------|
|--0--0-0-0-0-0-0-3--5--0-0-0-0-0-0-/11-10~-0-0-0-0-0-0---3-0-3-0-----------|


verse 2
|---------------------------------------------------------------------------|
|---------------------------------------------------------------------------|
|---------------------------------------------------------------------------|
|---------------------------------------------------------------------------|
|-------5----5---5-----8-6-5~---------5-------5-----------------------------|
|---0-0---0---0----0-0---------0-0-0---0-0-0---0-6-6-6-6-5-5-3--------------|


|---------------------------------------------------------------------------|
|---------------------------------------------------------------------------|
|---------------------------------------------------------------------------|
|---------------------------------------------------------------------------|
|-------5----5---5-----8-6-5~-----------------------------------------------|
|---0-0---0---0----0-0--------1-3--0-0-0-0-0--8-10--0-0-0-12\---------------|


chorus 2
|---------------------------------------------------------------------------|
|---------------------------------------------------------------------------|
|---------------------------------------------------------------------------|
|---------------------------------------------------------------------------|
|--0--------------3--5-------------------------------------------5-5-5------|
|--0--0-0-0-0-0-0-3--5--0-0-0-0-0-0-/11-10~-0-0-0-0-0-0---3-0-3-0-----------|


Bridge
|---------------------------------------------------------------------------|
|---------------------------------------------------------------------------|
|---------------------------------------------------------------------------|
|---------------------------------------------------------------------------|
|----8-8-8-7~-/2-2-2-3-3-3--------------------------------------------------|
|---------------------------------------------------------------------------|


|---------------------------------------------------------------------------|
|---------------------------------------------------------------------------|
|---------------------------------------------------------------------------|
|---------------------------------------------------------------------------|
|----8---7---2---3----------------------------------------------------------|
|---------------------------------------------------------------------------|
    {tremolo pick these notes}


|---------------------------------------------------------------------------|
|---------------------------------------------------------------------------|
|---------------------------------------------------------------------------|
|---------------------------------------------------------------------------|
|-----------5-------5-----8-6-5~------5-------5-----------------------------|
|----0-0-0----0-0-0---0-0-------0-0-0---0-0-0---0--6-6-6-6-5-5-3------------|


|---------------------------------------------------------------------------|
|---------------------------------------------------------------------------|
|---------------------------------------------------------------------------|
|---------------------------------------------------------------------------|
|-------5----5---5-----8-6-5----6-------------------------------------------|
|---0-0---0---0----0-0----------6----12\------------------------------------|


chorus
|---------------------------------------------------------------------------|
|---------------------------------------------------------------------------|
|---------------------------------------------------------------------------|
|---------------------------------------------------------------------------|
|--0--------------3--5-------------------------------------------5-5-5------|
|--0--0-0-0-0-0-0-3--5--0-0-0-0-0-0-/11-10~-0-0-0-0-0-0---3-0-3-0-----------|


|---------------------------------------------------------------------------|
|---------------------------------------------------------------------------|
|---------------------------------------------------------------------------|
|---------------------------------------------------------------------------|
|-----8----8-8-8-8-8-8--8b~----8-8-8-8-8-8--7-7-7-7-7-7-7-3-3-3-3-3-3-3-----|
|---------------------------------------------------------------------------|


/-slide up
\-slide down
~-vibrato
b-bend

its a pretty easy song to learn, its fun to play.
hope you enjoy iit!!!
Добавлено: 08.03.2012
Другие материалы по этой песне:
  • Аккорды и текст

Страница создана 08.03.2012
http://primanota.ru/agony-scene/sacrifice-chords.htm
Привет, Гость.
Предлагаем пройти революционный курс по гитаре.
Подарок от PrimaNota.Ru, забирай!