PrimaNota.ru - самый крупный в мире бесплатный архив песенных текстов, аккордов, табулатур и нот


Agony Scene - Prey - текст песни, таба, видео

Регистрация Запомнить меня
Войти через:  Facebook Google Twitter Vk Yandex Mail.ru

Agony Scene - Prey - текст песни, таба, видео

Печатать
Просмотров: 160
Авторы музыки: The Agony Scene
Авторы текста: The Agony Scene
I have decided that since everyone in this world is too lazy to tab out this song, I
just do it anyways.  The tuning is drop B which goes like (from
top to bottom) B, Gb, B, E, Ab, Db.  Now I have only got for you the intro,
pre-chorus and the chorus.  I jsut started tabbing this a few days ago.  If you want the
part and the bridge or if you have it yourself, email me at pjbrochu@gmail.com and if I
them by then I'll send them back to you in a text file.  Just label the Subject line:
Tabs.  Also, about these tabs, I am too lazy to figure out rhythm so I am going to
you the chord to play and you just take it from there. I do not have a whammy bar yet so
am unable to figure out the wavering harmonics they use, so I just left them out.  Here
go.

Atrist:  The Agony Scene
Album:  The Darkest Red
Song:  Prey
Tabbed by:  Patrick Brochu

^=Bend (If it is to a certain pitch I'll put that next to it but if not just
        give the string a light bend.)
p=Pull-off
h=Hammer-On
/=Slide
*=Palm Mute Strings Above the star

Good Luck!

Intro: (This part sounds like a chainsaw but it is only wicked overdrive)
|---------------------|
|---------------------|
|---------------------|
|--3--4--3--4-6-------| (Listen to the song for
|--3--4--3--4-6-------|  how many times to play.)
|--3--4--3--4-6-------|
Guitar 2: (I am not sure, but it could be the bass, if it's the bass just use one string)
|-------------------------|
|-------------------------|
|-------------------------|
|-0--1--0--1--------------|
|-0--1--0--1--------------|
|-0--1--0--1--------------|

Pre-Verse:
|---------------------|
|---------------------|
|---------------------|
|---------------------|(Once again, Listen to the
|---------------------| song for how many times to play
|-1-3/5^-0-0----------| the riff.)

Verse: (Almost same as Pre-Verse but in heavy chords)
|---------------------|
|---------------------|
|---------------------|
|--1--3-5-5---0-0-----| (Just Listen)
|--1--3-5-5---0-0-----|
|--1--3-5-5---0-0-----|
              * *

Pre-Chorus:  (Very Short)
|---------------------------------------------|
|---------------------------------------------|
|---------------------------------------------|
|--3----------------------------------6-------|  (If you listen, you
|--3--(<--(Repeat like 4x, then)-->)--6--(2x)-|   will get it)
|--3----------------------------------6-------|

Chorus:
|------------------------------|
|------------------------------|
|------------------------------|
|--0--6--3--6--0--6--3--6------|  (Listen Carefully)
|--0--6--3--6--0--6--3--6------|
|--0--6--3--6--0--6--3--6------|
      ^           ^
      |___________|
       Not sure about the 6th fret,
       It may be the 8th.

Well, that is most of the song.  I am pretty sure anyone looking for this tab
is capable of figuring out the order in which the song goes in by themselves, but I will
that later sometime.  I hope that my time has become of some use to those who look for
tab.  Any comments/complaints email me and I'll get back to you.  If you have a better
feel free to send me that.  And if you do figure out the freakin' bridge please
me.  ttyl. God Bless.
Добавлено: 24.04.2012
Другие материалы по этой песне:

Страница создана 18.03.2012
http://primanota.ru/agony-scene/prey-chords.htm
Привет, Гость.
Предлагаем пройти революционный курс по гитаре.
Подарок от PrimaNota.Ru, забирай!