PrimaNota.ru - самый крупный в мире бесплатный архив песенных текстов, аккордов, табулатур и нот


Agony Scene - Old Scratch - таба, видео

Регистрация Запомнить меня
Войти через:  Facebook Google Twitter Vk Yandex Mail.ru

Agony Scene - Old Scratch - таба, видео

Печатать
Просмотров: 172
Уроки эстрадного вокала в Санкт-Петербурге
D|------------------------------|----------------------------------------|
A|------------------------------|----------------------------------------|
F|------------------------------|----------------------------------------|
C|-0----------------------------|----------------------------------------|
G|-0----------------------------|---------------------------12-12p11p10p-|
C|-0-0-0-0-0-0-0-0-0-0-0-0-0-0-0|-h12p10-h12p10-h12p10-12p---------------|

                                                      [Play these both 3x]
                                               
D|------------------------------|----------------------------------------|
A|------------------------------|----------------------------------------|
F|------------------------------|----------------------------------------|
C|-0----------------------------|---------------------------(0)-3/5------|
G|-0----------------------------|---------------------------(0)-3/5------|
C|-0-0-0-0-0-0-0-0-0-0-0-0-0-0-0|-h12p10-h12p10-h12p10-12p--(0)-3/5------|



D|-------------------------|
A|-------------------------|
F|-------------------------|
C|-------------------------|  [x3]
G|--------------------3/5p-|
C|-2-0-0-0-0-0-0-0-0-0-----|

D|----------------------------------------|
A|----------------------------------------|
F|----------------------------------------|
C|----------------------------------------|
G|---------------------------12-12p11p10p-|
C|-h12p10-h12p10-h12p10-12p---------------|

D|-------------------------|
A|-------------------------|
F|-------------------------|
C|-------------------------|  [x3]
G|--------------------3/5p-|
C|-2-0-0-0-0-0-0-0-0-0-----|

D|----------------------------------------|
A|----------------------------------------|
F|----------------------------------------|
C|---------------------------(0)-3/5------|
G|---------------------------(0)-3/5------|
C|-h12p10-h12p10-h12p10-12p--(0)-3/5------|

D|---------------------------------------------------------|
A|---------------------------------------------------------|
F|---------------------------------------------------------|
C|-0-------------------------------------------------------|
G|-0------------------------------------------12-12p11p10p-|
C|-0-000--000--000--0-h12p10-h12p10-h12p10-12p-------------|
                                                            [Play these 2x] 
D|---------------------------------------------------------|
A|---------------------------------------------------------|
F|---------------------------------------------------------|
C|-0-------------------------------------------(0)-3/5-----|
G|-0-------------------------------------------(0)-3/5-----|
C|-0-000--000--000--0-h12p10-h12p10-h12p10-12p-(0)-3/5-----|

D|-----0~~~~~~~~-------------|
A|-------0~~~~~~~~-----------|
F|---------------------------|
C|-0~~~~~~~~~~~5~~~~~~3~~~~~~|  [x4]
G|-0~~~~~~~~~~~5~~~~~~3~~~~~~|
C|-0~~~~~~~~~~~5~~~~~~3~~~~~~|

D|-------------------------|
A|-------------------------|
F|-------------------------|
C|-------------------------|  [x3]
G|--------------------3/5p-|
C|-2-0-0-0-0-0-0-0-0-0-----|

D|----------------------------------------|
A|----------------------------------------|
F|----------------------------------------|
C|---------------------------(0)-3/5------|
G|---------------------------(0)-3/5------|
C|-h12p10-h12p10-h12p10-12p--(0)-3/5------|

D|-------------------------|
A|-------------------------|
F|-------------------------|
C|-------------------------|  [x3]
G|--------------------3/5p-|
C|-2-0-0-0-0-0-0-0-0-0-----|

D|--------------------------------------|
A|--------------------------------------|
F|--------------------------------------|
C|--------------------------------------|
G|-------------------------12-12p11p10p-|
C|-h12p10-h12p10-h12p10-12p-------------|

D|-------------------------|
A|-------------------------|
F|-------------------------|
C|-------------------------|  [x3]
G|--------------------3/5p-|
C|-2-0-0-0-0-0-0-0-0-0-----|

D|--------------------------------------|
A|--------------------------------------|
F|--------------------------------------|
C|---------------------------/5---------|
G|---------------------------/5---------|
C|-h12p10-h12p10-h12p10-12p--/5---------|

D|--------------------------------------------------------|
A|--------------------------------------------------------|
F|--------------------------------------------------------|
C|-0------------------------------------------------------|
G|-0-----------------------------------------12-12p11p10p-|
C|-0-000--000--000--0h12p10-h12p10-h12p10-12p-------------|
                                                            [Play these 2x] 
D|--------------------------------------------------------|
A|--------------------------------------------------------|
F|--------------------------------------------------------|
C|-0------------------------------------------(0)-3/5-----|
G|-0------------------------------------------(0)-3/5-----|
C|-0-000--000--000--0h12p10-h12p10-h12p10-12p-(0)-3/5-----|

D|-----0~~~~~~~~-------------|
A|-------0~~~~~~~~-----------|
F|---------------------------|
C|-0~~~~~~~~~~~5~~~~~~3~~~~~~|  [x3]
G|-0~~~~~~~~~~~5~~~~~~3~~~~~~|
C|-0~~~~~~~~~~~5~~~~~~3~~~~~~|

-

Guitar1
D|---------------------------|
A|---------------------------|
F|---------------------------|
C|---12\\\\\\8//15-----------|  [PICKSLIDE down slowly, then up quickly]
G|---12\\\\\\8//15-----------|
C|---12\\\\\\8//15-----------|
Guitar2
D|---------------------------|
A|---------------------------|
F|---------------------------|
C|---------------------------| [Slow slide]
G|---------------------------|
C|---------10\\\\\0----------|

-

D|---------------------------|
A|---------------------------|
F|---------------------------|
C|---------------//----------|  
G|------------5b//-----------|
C|-0-3b--0-------------------|

D|---------------------------|
A|---------------------------|
F|---------------------------|
C|--------------------//-----|
G|-----------------5b//------|
C|-0000-00-------------------|

D|---------------------------|
A|---------------------------|
F|---------------------------|
C|-----------------------//--|
G|--------------------5b//---|
C|-0000-00-0000-00-----------|

D|------------------------------------|
A|------------------------------------|
F|------------------------------------|
C|-------------------------//---------|  
G|----------------------5b//----------|
C|-0000-00--0-3b--0-------------------|

D|---------------------------|
A|---------------------------|
F|---------------------------|
C|-------------------//------|
G|----------------5b//-------|
C|-0000-00-------------------|

D|---------------------------|
A|---------------------------|
F|---------------------------|
C|-----------------------//--|
G|--------------------5b//---|
C|-0000-00-0000-00-----------|

D|------------------------------------|
A|------------------------------------|
F|------------------------------------|
C|-------------------------//---------|  
G|----------------------5b//----------|
C|-0000-00--0-3b--0-------------------|

D|-----------------------|
A|-----------------------|
F|-----------------------|
C|------------3\0--------|  
G|------------3\0--------|
C|-0000-00----3\0--------|

D|---------------------------------------|
A|---------------------------------------|
F|---------------------------------------|
C|---------------------------------------|  [5x]
G|---------------------------------------|
C|-0000-00-0000-00--0-3b-0-7^~^~^~^~^----|

D|--------------------|
A|--------------------|
F|--------------------|
C|--------------------|  
G|--------------------|
C|-0000-00--0000-00---|

D|-----0~~~~~~~~-------------|
A|-------0~~~~~~~~-----------|
F|---------------------------|
C|-0~~~~~~~~~~~5~~~~~~3~~~~~~|  [several times]
G|-0~~~~~~~~~~~5~~~~~~3~~~~~~|
C|-0~~~~~~~~~~~5~~~~~~3~~~~~~|

D|-------------------------|
A|-------------------------|
F|-------------------------|
C|-0~~~~~~~~~~~ [let ring]-|
G|-0~~~~~~~~~~~ [let ring]-|
C|-0~~~~~~~~~~~ [let ring]-|
Добавлено: 07.06.2012
Другие материалы по этой песне:
  • Аккорды и текст

Страница создана 07.06.2012
http://primanota.ru/agony-scene/old-scratch-chords.htm
Привет, Гость.
Предлагаем пройти революционный курс по гитаре.
Подарок от PrimaNota.Ru, забирай!