PrimaNota.ru - самый крупный в мире бесплатный архив песенных текстов, аккордов, табулатур и нот


Agony Scene - My Dark Desire - текст песни, таба, видео

Регистрация Запомнить меня
Войти через:  Facebook Google Twitter Vk Yandex Mail.ru

Agony Scene - My Dark Desire - текст песни, таба, видео

Печатать
Просмотров: 201
Авторы музыки: The Agony Scene
Авторы текста: The Agony Scene
----------------------------------------------------------------------------
                      My dark desire - The agony scene
----------------------------------------------------------------------------
Tabbed by: sean crow
Email: die_for_noting_323@hotmail.com
Aim: blackorange555                        
                              ***** PLEASE RATE AND COMMENT *****
Tuning: DADGBe
Real song: i think CGCFAd     I was asked to tab this one so i did!!
                              Im not sure how accurate it is cos this song
                              was hard to tab...Use lots of distortion!

         
e|----------------------------------------------|
B|----------------------------------------------|
G|-----------------------------------------5*---|
D|---1/2---1-1---0S------1/2---1-1---0S---------|  S
A|-0-1/2-0-1-1-0-0T----0-1/2-0-1-1-0-0T--0------|  T = abrupt stop
E|-0-1/2-0-1-1-0-0P----0-1/2-0-1-1-0-0P--0------|  p
   .     .     .       .     .     .     .
e|----------------------------------------------|
B|-----------------------------------------5*---|
G|----------------------------------------------|  * = Harmonic .. not right
D|---1/2---1-1---0S------1/2---1-1---0----------|      fret tho, but still
A|-0-1/2-0-1-1-0-0T----0-1/2-0-1-1-0-0-000------|      sounds ok!!
E|-0-1/2-0-1-1-0-0P----0-1/2-0-1-1-0-0-000------|
   .     .     .       .     .     .   ...
e|--------------------------------|-------------------------|
B|--------------------------------|---------------------5*--| 
G|--------------------------------|-------------------------| (x3) = play
D|---1/2---1-1---0-----------(x3)-|---1/2---1-1---0---------| everything b4
A|-0-1/2-0-1-1-0-0-000000-00------|-0-1/2-0-1-1-0-0-000-----| three times!
E|-0-1/2-0-1-1-0-0-000000-00------|-0-1/2-0-1-1-0-0-000-----|
   .     .     .   ...... ..        .     .     .   ...
e|-------------------------------|-------------------------|
B|-------------------------------|---------------------5*--| 
G|-------------------------------|-------------------------| (x3) = play
D|---1/2---1-1---0----------(x3)-|---1/2---1-1---0---------| everything b4
A|-0-1/2-0-1-1-0-0-00000000------|-0-1/2-0-1-1-0-0-000-----| three times!
E|-0-1/2-0-1-1-0-0-00000000------|-0-1/2-0-1-1-0-0-000-----|
   .     .     .   ........        .     .     .   ...
e|------------------------------|-------------------------|
B|------------------------------|---------------------5*--|
G|------------------------------|-------------------------|  Play line 2x
D|---1/2---1-1---0-555-333-(x3)-|---1/2---1-1---0---------| 
A|-0-1/2-0-1-1-0-0-555-333------|-0-1/2-0-1-1-0-0-000-----|
E|-0-1/2-0-1-1-0-0-555-333------|-0-1/2-0-1-1-0-0-000-----|
   .     .     .                  .     .     .   ...
e|------------------|
B|------------------|
G|------------------|
D|-0000000000000000-|  16 of them
A|-0000000000000000-|
E|-0000000000000000-|
   ................
e|------------------------------------|
B|------------------------------------|
G|------------------------------------|
D|-22222222-666-5-3-33-333333-888-5-7-|
A|-22222222-666-5-3-33-333333-888-5-7-|
E|-22222222-666-5-3-33-333333-888-5-7-|
                    ..
e|------------------------------------------------|
B|------------------------------------------------|
G|---------------------------------------------7*-|
D|-22222222-666-5-3----9---7---9--10---9---7------|
A|-22222222-666-5-3----7---5---7---8---7---5------|
E|-22222222-666-5-3-00---0---0---0---0---0---0----|
                    ..   .   .   .   .   .   .
e|------------------------------------|
B|------------------------------------|
G|------------------------------------|
D|-22222222-666-5-3-33-333333-888-5-7-|
A|-22222222-666-5-3-33-333333-888-5-7-|
E|-22222222-666-5-3-33-333333-888-5-7-|
                    ..
e|----------------------------------------------|
B|----------------------------------------------|
G|---------------------------------9/10\9-7/9\7-|
D|-22222222-666-5-3----9---7---9---x/-x\x-x/x\x-|
A|-22222222-666-5-3----7---5---7---7/-8\7-5/7\5-|
E|-22222222-666-5-3-00---0---0---0--------------|
                    ..   .   .   .
e|------------------------------|-------------------------|
B|------------------------------|---------------------5*--|
G|------------------------------|-------------------------|  Play line 2x
D|---1/2---1-1---0-555-333-(x3)-|---1/2---1-1---0---------| 
A|-0-1/2-0-1-1-0-0-555-333------|-0-1/2-0-1-1-0-0-000-----|
E|-0-1/2-0-1-1-0-0-555-333------|-0-1/2-0-1-1-0-0-000-----|
   .     .     .                  .     .     .   ...
e|------------------|
B|------------------|
G|------------------|
D|-0000000000000000-|  16 of them
A|-0000000000000000-|
E|-0000000000000000-|
   ................
e|------------------------------------|
B|------------------------------------|
G|------------------------------------|
D|-22222222-666-5-3-33-333333-888-5-7-|
A|-22222222-666-5-3-33-333333-888-5-7-|
E|-22222222-666-5-3-33-333333-888-5-7-|
                    ..
e|------------------------------------------------|
B|------------------------------------------------|
G|---------------------------------------------7*-|
D|-22222222-666-5-3----9---7---9--10---9---7------|
A|-22222222-666-5-3----7---5---7---8---7---5------|
E|-22222222-666-5-3-00---0---0---0---0---0---0----|
                    ..   .   .   .   .   .   .
e|------------------------------------|
B|------------------------------------|
G|------------------------------------|
D|-22222222-666-5-3-33-333333-888-5-7-|
A|-22222222-666-5-3-33-333333-888-5-7-|
E|-22222222-666-5-3-33-333333-888-5-7-|
                    ..
e|--------------------------------------------------|
B|--------------------------------------------------|
G|---------------------------------9/10\9-7/9\7-----|
D|-22222222-666-5-3----9---7---9---x/-x\x-x/x\x-0~~~|
A|-22222222-666-5-3----7---5---7---7/-8\7-5/7\5-0~~~|
E|-22222222-666-5-3-00---0---0---0--------------0~~~|
                    ..   .   .   .
e|----------------------|
B|-------------------7*-|
G|--------------(x4)----| S
D|-00---0---00S---------| T = abrupt stop!  (x4) = play everthing b4 4times!
A|-00-0-0-0-00T---------| P 
E|-00-0-0-0-00P---------|
      .   .
e|----------------------------------|
B|-------------------------------7*-|
G|----------------------------------|
D|-00---0---00---0---00---0---00----| Play line 2x
A|-00-0-0-0-00-0-0-0-00-0-0-0-00----|
E|-00-0-0-0-00-0-0-0-00-0-0-0-00----|
      .   .    .   .    .   .
e|----------------------|
B|-------------------7*-|
G|--------------(x4)----| 
D|-00---0---00S---------| * = harmonic .. not the correct note tho!!
A|-00-0-0-0-00T---------|  
E|-00-0-0-0-00P---------|
      .   .
e|---------------------|
B|---------------------|
G|---------------------|
D|-0---0---0---0---0-0-|
A|-0---0---0---0---0-0-|
E|-0-0-0-0-0-0-0-0-000-|
     .   .   .   .  .
e|------------------------------------|
B|------------------------------------|
G|------------------------------------|
D|-22222222-666-5-3-33-333333-888-5-7-|
A|-22222222-666-5-3-33-333333-888-5-7-|
E|-22222222-666-5-3-33-333333-888-5-7-|
                    ..
e|------------------------------------------------|
B|------------------------------------------------|
G|---------------------------------------------7*-|
D|-22222222-666-5-3----9---7---9--10---9---7------|
A|-22222222-666-5-3----7---5---7---8---7---5------|
E|-22222222-666-5-3-00---0---0---0---0---0---0----|
                    ..   .   .   .   .   .   .
e|------------------------------------|
B|------------------------------------|
G|------------------------------------|
D|-22222222-666-5-3-33-333333-888-5-7-|
A|-22222222-666-5-3-33-333333-888-5-7-|
E|-22222222-666-5-3-33-333333-888-5-7-|
                    ..
e|--------------------------------------------------|
B|--------------------------------------------------|
G|---------------------------------9/10\9-7/9\7-----|
D|-22222222-666-5-3----9---7---9---x/-x\x-x/x\x-0~~~|
A|-22222222-666-5-3----7---5---7---7/-8\7-5/7\5-0~~~|
E|-22222222-666-5-3-00---0---0---0--------------0~~~|
                    ..   .   .   .
e|------------------------------------|
B|------------------------------------|
G|------------------------------------|
D|-22222222-666-5-3-33-333333-888-5-7-|
A|-22222222-666-5-3-33-333333-888-5-7-|
E|-22222222-666-5-3-33-333333-888-5-7-|
                    ..
e|------------------------------------------------|
B|------------------------------------------------|
G|---------------------------------------------7*-|
D|-22222222-666-5-3----9---7---9--10---9---7------|
A|-22222222-666-5-3----7---5---7---8---7---5------|
E|-22222222-666-5-3-00---0---0---0---0---0---0----|
                    ..   .   .   .   .   .   .
e|------------------------------------|
B|------------------------------------|
G|------------------------------------|
D|-22222222-666-5-3-33-333333-888-5-7-|
A|-22222222-666-5-3-33-333333-888-5-7-|
E|-22222222-666-5-3-33-333333-888-5-7-|
                    ..
e|--------------------------------------------------|
B|--------------------------------------------------|
G|---------------------------------9/10\9-7/9\7-----|
D|-22222222-666-5-3----9---7---9---x/-x\x-x/x\x-0~~~|
A|-22222222-666-5-3----7---5---7---7/-8\7-5/7\5-0~~~|
E|-22222222-666-5-3-00---0---0---0--------------0~~~|
                    ..   .   .   .
e|-----------------------------|
B|-----------------------------|
G|----------------9/10\9-7/9\7-|
D|----9---7---9---x/-x\x-x/x\x-| Play line 2x
A|----7---5---7---7/-8\7-5/7\5-|
E|-00---0---0---0--------------|
   ..   .   .   . 
e|----------------|
B|----------------|
G|----------------|
D|---0~~~~~~~~~~~~| THE END!! like i said before...this is a hard one to tab
A|-0-0~~~~~~~~~~~~|           so it isn't perfect but it still sounds good 
E|-0-0~~~~~~~~~~~~|           and fits in with the song!! rate + comment!!
   .
Добавлено: 07.04.2012
Другие материалы по этой песне:
  • Аккорды и текст

Страница создана 30.03.2012
http://primanota.ru/agony-scene/my-dark-desire-chords.htm
Привет, Гость.
Предлагаем пройти революционный курс по гитаре.
Подарок от PrimaNota.Ru, забирай!