PrimaNota.ru - самый крупный в мире бесплатный архив песенных текстов, аккордов, табулатур и нот


Agony Scene - Eyes Swen Shut - таба, видео

Регистрация Запомнить меня
Войти через:  Facebook Google Twitter Vk Yandex Mail.ru

Agony Scene - Eyes Swen Shut - таба, видео

Печатать
Просмотров: 126
Tuning : C G C F A D

"h"  harmonic
"<>"  pinch harmonic


Guitar 1 :

------------------------|
------------------------|
------------------------|
------------------------|
------------------------|
-1p0-0-0-0-1p0-0-0-1h2--|

Guitar 2 :

------------------------------|
------------------------------|
------------------------------|
-0-------0--------------------|
-0-------0--------------------|
-0-------0-----------x///////-|

Guitar 1 :

not sure about last few notes :

---------------------------------|
---------------------------------|
---------------------------------|
-0-0-1--0-1--0-0-1-1-------------|
-0-0-1--0-1--0-0-1---4-3---------|
-0-0-1--0-1--0-0-1-------0-5-0-3-|

Guitar 2 :

-------------------------|
-------------------------|
-------------------------|
-0-0-1--0-1--0-0-1--0-1--|
-0-0-1--0-1--0-0-1--0-1--|
-0-0-1--0-1--0-0-1--0-1--|

-------------------------------|
-------------------------------|
-------------------------------|
-0-0-1--0-1--------------------|
-0-0-1--0-1------3------3--0-0-|
-0-0-1--0-1--000----000----0-0-|

Guitar 1 :

---------------------------------|
---------------------------------|
---------------------------------|
---------h---------h-----h-------|
---------4---------4-----4-------|
-0-0-0-0---0-0-0-0----0----0-0-0-|

Guitar 2 :

---------------------------------|
---------------------------------|
---------------------------------|
-0-0-0-0---0-0-0-0----0----0-0-0-|
-0-0-0-0---0-0-0-0----0----0-0-0-|
-0-0-0-0---0-0-0-0----0----0-0-0-|

Both guitars :

Odd times end with :        Even times end with :

--------|                --------|
--------|                --------|
--------|                --------|
--------|                --------|
--------|                --------|
-1h3-1--|                --1-----|

Guitar 1 :

-------------------------------------------|
-------------------------------------------|
-------------------------------------------|
-----h---h------h------------h---h---------|
-0-0-4---4--0-0-4---h----0-0-4---4--h------|
-0-0---0----0-0---0-4----0-0---0----4-7///-|

Guitar 2 :

-------------------------|
-------------------------|
-------------------------|
-0-0-1--0-1---0-0-1--0-1-|
-0-0-1--0-1---0-0-1--0-1-|
-0-0-1--0-1---0-0-1--0-1-|

Guitar 2 ends riff with :


-----|
-----|
-----|
--0--|
--0--|
--0--|

Back into :

------------------------|
------------------------|
------------------------|
------------------------|
------------------------|
-1p0-0-0-0-1p0-0-0-1h2--|

Guitar 1 

---------------|
---------------|
---------------|
-------------h-|
-00-00-00-00-5-|
-00-00-00-00---|

Bridge :

Guitar 2 :

-----------------------------|
-----------------------------|
-----------------------------|
-----------------------------|
-----------------------------|
-1-0-0--1-0-0--0-1-0--0-1-0--|

Guitar 1 comes with :

---------------|
---------------|
---------------|
-0-------------|
-0-------------|
-0-----x////---|

Both guitars :

-----------------------------|
-----------------------------|
-----------------------------|
-1-0-0--1-0-0--0-1-0--0-1-0--|
-1-0-0--1-0-0--0-1-0--0-1-0--|
-1-0-0--1-0-0--0-1-0--0-1-0--|

-----------------------------|
-----------------------------|
-----------------------------|
-----------------------------|
-----------------------------|
-1-0-0--1-0-0--0-1-0--0-1-0--|

---------------|
---------------|
---------/(9)--|
-7-----6-------|
-5-----4-/(7)--|
---------------|

Guitar 1 :

-------------------------------|
-------------------------------|
------3---------------3--------|
------3-2--0-1--------3-2--0-1-|
------1-2--0-1--------1-2--0-1-|
-0000---2--0-1---0000---2--0-1-|

Guitar 2 :

-------------------------------|
-------------------------------|
-------------------------------|
-------------------------------|
------1------1--------1------1-|
-0000---2--0-1---0000---2--0-1-|

Pick each note several times :

Guitar 1 :

-------------|
-------------|
-------------|
--7---6------|
--5---4------|
-------------|

Guitar 2 :

-------------|
-------------|
-------------|
-------------|
--5---4--7---|
-------------|

Both guitars :

-----------------------------|
-----------------------------|
-----------------------------|
-1-0-0--1-0-0--0-1-0--0-1-0--|
-1-0-0--1-0-0--0-1-0--0-1-0--|
-1-0-0--1-0-0--0-1-0--0-1-0--|


------------------------|
------------------------|
------------------------|
------------------------|
------------------------|
-1p0-0-0-0-1p0-0-0-1h2--|

Добавлено: 24.05.2012
Другие материалы по этой песне:
  • Аккорды и текст

Страница создана 24.05.2012
http://primanota.ru/agony-scene/eyes-swen-shut-chords.htm
Привет, Гость.
Предлагаем пройти революционный курс по гитаре.
Подарок от PrimaNota.Ru, забирай!