PrimaNota.ru - самый крупный в мире бесплатный архив песенных текстов, аккордов, табулатур и нот


Agony Scene - Dances With Devils - таба, видео

Регистрация Запомнить меня
Войти через:  Facebook Google Twitter Vk Yandex Mail.ru

Agony Scene - Dances With Devils - таба, видео

Печатать
Просмотров: 119
-----------------------------------------------------------------
Dances With Devils - The Agony Scene
-----------------------------------------------------------------
Tabbed by: Vexiliation  
Email: inverted_vertigo@hotmail.com
Tuning: Drop C
Gtr 1 & 2 (0:01), (0:47) etc.
D|----------------------------------------|
A|----------------------------------------|
F|------7-7-7-7-7-7-7-7-7-7-7-7-7-7-------|
C|------6-6-6-6-6-6-6-6-6-6-6-6-6-6-------|
G|---0--5-5-5-5-5-5-5-5-5-5-5-5-5-5-------|
C|---0------------------------------------|

D|-----------------------------------------|
A|-----------------------------------------|
F|------7-7-7-7-7-7-7-7-7-7-7-7--7--7------|
C|------6-6-6-6-6-6-6-6-6-6-6-6--6--6------|
G|---0--5-5-5-5-5-5-5-5-5-5-5-5--5--5------|
C|---0-------------------------------------|

D|------------------------------------------|
A|------------------------------------------|
F|------7-7-7-7-7-7-7-7-7-7-7-7-7-7---------|
C|------6-6-6-6-6-6-6-6-6-6-6-6-6-6---------|
G|---0--5-5-5-5-5-5-5-5-5-5-5-5-5-5---------|
C|---0--------------------------------------|

D|--------------------------------------------------------------|
A|--------------------------------------------------------------|
F|------7-7-7-7-7-7-7-7-7-7-7-7-7-7-----------------------------|
C|------6-6-6-6-6-6-6-6-6-6-6-6-6-6-----------------------------|
G|---0--5-5-5-5-5-5-5-5-5-5-5-5-5-5-------\slow pick scrape-----|
C|---0-------------------------------------\--------------------|


Gtr 1 (0:10), (0:57) etc.
D|------------------------------------------|
A|------------------------------------------|
F|------------------------------------------|
C|------------------------------------------|
G|-------5-----5-----5-5-5--6-6-6-----------|
C|--0-0----0-0---0----------6-6-6-----------| X3
      .    . .   .
Gtr 2
D|-----------------------------------------|
A|-----------------------------------------|
F|-----------------------------------------|
C|--0-----------------------6-6-6----------|
G|--0-----------------------6-6-6----------|
C|--0-----------------------6-6-6----------| X3

Gtr 1 & 2(0:18)
D|----------------------------------------------------|
A|----------------------------------------------------|
F|----------------------------------------------------|
C|----------------------------------------------------|
G|------4---4-----3ph~--------------------------------|
C|--1-1---1---1-1----1--3--4--3ph~--------------------|
      .   .   . .    .  .  .
Gtr 1 & 2 (0:20)
D|------------------------------------------|
A|------------------------------------------|
F|------------------------------------------|
C|------------------------------------------|
G|-------5------5----5-5-5--6-6-6-----------|
C|--0-0----0-0---0----------6-6-6-----------|X3
      .    . .   .
Gtr 1 & 2(0:28)
D|----------------------------------------------------|
A|----------------------------------------------------|
F|----------------------------------------------------|
C|----------------------------------------------------|
G|------4---4-----3ph~--------------------------------|
C|--1-1---1---1-1----1--3--4--3ph~--------------------|
      .   .   . .    .  .  .
Gtr 1(0:30)
D|-----------------------------------------------|
A|-----------------------------------------------|
F|--7---------------7---9-7-9-7-10---------------|
C|--x---------------x---x-x-x-x-x----------------|
G|--5--0-0-0-0-0-0--5---7-5-7-5-8----------------|
C|-----0-0-0-0-0-0----0--------------------------|

Gtr 2 
D|-----------------------------------------------|
A|-----------------------------------------------|
F|-----------------------------------------------|
C|--0-0-0-0-0-0-0-0-0-0-0-0-0-0------------------|
G|--0-0-0-0-0-0-0-0-0-0-0-0-0-0------------------|
C|--0-0-0-0-0-0-0-0-0-0-0-0-0-0------------------|

Gtr 1
D|------------------------------------------------------------|
A|------------------------------------------------------------|
F|-------------10-10-10-9-9-9-7-7-7-7-7-7-7-10-10-10-9-9-9----|
C|--------------x--x--x-x-x-x-x-x-x-x-x-x-x-x--x--x--x-x-x----|
G|--0-0-0-0-0-0-8--8--8-7-7-7-5-5-5-5-5-5-5-8--8--8--7-7-7----|
C|--0-0-0-0-0-0-----------------------------------------------|

Gtr 2
D|---------------------------------------------------------|
A|---------------------------------------------------------|
F|---------------------------------------------------------|
C|--0-0-0-0-0-0-0-0-0-0-0-0-0-8-8-8-8-8-8-3-3-3-7-7-7------|
G|--0-0-0-0-0-0-0-0-0-0-0-0-0-8-8-8-8-8-8-3-3-3-7-7-7------|
C|--0-0-0-0-0-0-0-0-0-0-0-0-0-8-8-8-8-8-8-3-3-3-7-7-7------|

Gtr 1 & 2
D|------------------|
A|------------------|
F|------------------|
C|---0--------------|
G|---0--------------|
C|---0--------------|

Gtr 1 & 2
D|---------------------------------------------------------------|
A|---------------------------------------------------------------|
F|---------------------------------------------------------------|
C|---------------------------------------------------------------|
G|--0-0-0-0--0-0-0-0--0-1-2-3------------------------------------|
C|--0-0-0-0--0-0-0-0--0-1-2-3------------------------------------|
    . . . .  . . . .  .
You can figure out the order of which they are all played, it's pretty easy to figure out.

Tablature Notation

h - hammer on 
p - pull off 
ph - pinch harmonic
b - bend string up
r - release bend
/ - slide up
\ - slide down
v - vibrato (or ~)
t - right hand tap
x - play 'note' with heavy muting
. - palm mute
Добавлено: 11.03.2012
Другие материалы по этой песне:

Страница создана 11.03.2012
http://primanota.ru/agony-scene/dances-with-devils-chords.htm
Привет, Гость.
Предлагаем пройти революционный курс по гитаре.
Подарок от PrimaNota.Ru, забирай!