PrimaNota.ru - самый крупный в мире бесплатный архив песенных текстов, аккордов, табулатур и нот


Agnostic Front - Riot Riot Upstart - аккорды и текст, бас-таба, видео

Регистрация Запомнить меня
Войти через:  Facebook Google Twitter Vk Yandex Mail.ru

Agnostic Front - Riot Riot Upstart - аккорды и текст, бас-таба, видео

Печатать
Просмотров: 181
Уроки эстрадного вокала в Санкт-Петербурге
Авторы: Rob Kabula, Roger Miret, Jimmy Colletti, Vinnie Stigma

Riot Riot Upstart
Agnostic Front
AGNOSTIC FRONT - Riot, Riot Upstart
-------------------------------------
Album: Working class heroes 
         ( split-CD with DISCIPLINE!!!!: The best live show ever)
               
                
Intro:
G|-------------------------------------------------|
D|-------------------------------------------------|
A|-------------0-0-0-0-0-0-3-3-3-3-3-3-5-5-5-5-5-5-|
E|-0-0-0-0-0-0-------------------------------------|

verse:
G|-------------------------------------------------|
D|-------------------------------------------------|
A|-------------------------------5-5-5-5-5-5-5-5-5-|
E|-0-0-0-0-0-0-0-0-0-0-0-0-0-0-0-------------------|

G|-------------------------------------------------|
D|-------------------------------------------------|
A|-------------------3-3-3-3-3-3-3-5-5-5-5-5-5-5-5-|
E|-0-0-0-0-0-0-0-0-0-------------------------------|

pre-chorus:
G|-------------------|
D|-------------------|
A|-7-7-5-5-0-0-0-0-2-|
E|-------------------|

chorus:
G|-----------------------------------------|
D|-----------------------------------------|
A|-2-@-2-@-2-----------5-5-5-5-5-3-3-3-3-3-|
E|-----------0-0-0-0-0---------------------|

Bridge:
G|---------------3-5-3-----|
D|-----------3-5-------5-3-|
A|-7-7-3-3-5---------------|
E|-------------------------|
Добавлено: 27.09.2013
Другие материалы по этой песне:
  • Аккорды и текст

Страница создана 14.04.2012
http://primanota.ru/agnostic-front/riot-riot-upstart-chords.htm
Привет, Гость.
Предлагаем пройти революционный курс по гитаре.
Подарок от PrimaNota.Ru, забирай!