PrimaNota.ru - самый крупный в мире бесплатный архив песенных текстов, аккордов, табулатур и нот


Agnes Carlsson - Release Me - аккорды и текст, таба, видео

Регистрация Запомнить меня
Войти через:  Facebook Google Twitter Vk Yandex Mail.ru

Agnes Carlsson - Release Me - аккорды и текст, таба, видео

Печатать
Просмотров: 349
Авторы: Anders Hansson, Agnes Carlsson, Sharon Vaughn

Release Me
Agnes Carlsson
Agnes Carlsson    Release Me

Standard Tuning    EBGDAE

Capo 2nd

Tabbed by Leon savin


Intro:
                                                   A
E||-5-5----5-5----5-5----3-3----|  |-5-5----5-5---------|  
B||-0-0----3-3----5-5----0-0----|  |-0-0----3-3----2----|  
G||-----------------------------|x3|---------------2----|
D||---------------7-7----2-2----|  |---------------2----|  
A||--------2-2------------------|  |--------2-2---------|  
E||-3-3-------------------------|  |-3-3----------------|  


Verse:
    Bm7  G    E                                                       
E||-2----3-------------| 
B||------3-------------|  
G||-2---------1--------|x4
D||-----------2--------| 
A||-2----2----2--------|  
E||------3-------------|  


Pre Chorus:
    D      F#                                                       
E||-2--------6------| 
B||-3--------7------|  
G||-2--------8------|
D||-0--------9------| 
A||-----------------|  
E||-----------------|  



Chorus:  
    G   Bm7   A    Em7       G   Bm7   A  
E||-3----2--------------|  |-3----2-------------|  
B||-3---------2----3----|  |-3---------2--------|  
G||------2----2---------|x3|------2----2--------|  
D||-----------2----2----|  |-----------2--------|  
A||-2----2---------2----|  |-2----2-------------|  
E||-3-------------------|  |-3------------------|         



Verse 2(same as verse 1)

Pre Chorus

Chorus 

Then:
    G   Bm7   A   Em7        D      F#                                        
E||-3----2--------------|  |-2--------6------|  
B||-3---------2----3----|  |-3--------7------|  
G||------2----2---------|x2|-2--------8------|  
D||-----------2----2----|  |-0--------9------|  
A||-2----2---------2----|  |-----------------|  
E||-3-------------------|  |-----------------|  


Then:
                                                   A
E||-5-5----5-5----5-5----3-3----|  |-5-5----5-5---------|  
B||-0-0----3-3----5-5----0-0----|  |-0-0----3-3----2----|  
G||-----------------------------|x1|---------------2----|
D||---------------7-7----2-2----|  |---------------2----|  
A||--------2-2------------------|  |--------2-2---------|  
E||-3-3-------------------------|  |-3-3----------------|  



End With Last Chorus:
    G   Bm7   A   Em7
E||-3----2--------------|  
B||-3---------2----3----|   
G||------2----2---------|x4
D||-----------2----2----|  
A||-2----2---------2----|  
E||-3-------------------| 


       A
E||-----------------| 
B||-----2-----------|  
G||-----2-----------|
D||-----2-----------| 
A||-----------------|  
E||-----------------|
      Bm7
        
E||-----2-----------| 
B||-----------------|  
G||-----2-----------|
D||-----------------| 
A||-----2-----------|  
E||-----------------| 

      G
E||----3------------| 
B||----3------------|  
G||-----------------|
D||-----------------| 
A||----2------------|  
E||----3------------|    


      E
E||-----------------| 
B||-----------------|  
G||---1-------------|
D||---2-------------| 
A||---2-------------|  
E||-----------------| 


      D
E||---2-------------| 
B||---3-------------|  
G||---2-------------|
D||---0-------------| 
A||-----------------|  
E||-----------------| 

     F#   
E||----6------------| 
B||----7------------|  
G||----8------------|
D||----9------------| 
A||-----------------|  
E||-----------------| 

        Em7
E||-----------------| 
B||----3------------|  
G||-----------------|
D||----2------------| 
A||----2------------|  
E||-----------------|   


Добавлено: 15.03.2012
Другие материалы по этой песне:
  • Аккорды и текст

Страница создана 01.03.2012
http://primanota.ru/agnes-carlsson/release-me-chords.htm
Привет, Гость.
Предлагаем пройти революционный курс по гитаре.
Подарок от PrimaNota.Ru, забирай!