PrimaNota.ru - самый крупный в мире бесплатный архив песенных текстов, аккордов, табулатур и нот


Agipo - Tilawi Ang Lami - таба, видео

Регистрация Запомнить меня
Войти через:  Facebook Google Twitter Vk Yandex Mail.ru

Agipo - Tilawi Ang Lami - таба, видео

Печатать
Просмотров: 78
Band/Artist: Agipo
Song: Tilawi Ang Lami
Tabbed by: L.G.T

Intro:

Riff 1
e|------------------------------------------------------------------|
B|--10~---7~---3~---5~--/--10~---7~---3~---5~--/--------------------|
G|------------------------------------------------------------------|
D|------------------------------------------------------------------|
A|------------------------------------------------------------------|
E|------------------------------------------------------------------|

Riff 2(Do this chord pattern A-F#m-D-E-)
e|------------------------------------------------------------------|
B|-10-10p9-10p9-10-7--5-5/-7--7-7/9-7-5-5--10-12b-10-12b-10-12-10b--|
G|------------------------------------------------------------------|
D|------------------------------------------------------------------|
A|------------------------------------------------------------------|
E|------------------------------------------------------------------|

e ----------------------------|
B -7-7/-10-12-10/12b~--10~----|
G ----------------------------|
D ----------------------------|
A ----------------------------|
E ----------------------------|

Verse:
A      F#m         D        E
Nakahinumdom ko sa bata pa ako
A          F#m       D       E
Permi kung dad-on ni Lola og Lolo
A      F#m  D     E
Manimba mi taga domingo
  A                 F#m     D       E
Sa parokya ni San Isidro sa San Fernando
A-F#m-D-E-;
huhh...

A      F#m      D        E
Inig gawas namo sa simbahan
A          F#m         D          E
Food trip mi dayun sa George kan-anan
  A      F#m        D              E
Order og adobo paklay, ginamay, choriso
A     F#m     D        E
Caldereta, humba og tinuwa

Pre-chorus:
C#m             D     C#m           D
Mag pataman sa ginhawa pwerte gyud nakong busuga
C#m           D             Bm           E
Pag human namo og panga-on sa tuba yarok-yarok dayun

Chorus
A       F#m         D          E
Bisag walay palaman payter kaayong tila-an
A      F#m           D        E
Magtuwad mag barog kalami mo kulitog
A           F#m        D        E
Mata piyong piyongon kagilok pamati-on
  A      F#m    D   E
Sa bingka nga pinaliki tilawi ang lami

Riff 3 (A-F#m-D-E-;)
e|----------------------------------------------------------------------------|
B|-10-10p9-10p9-10p9-10--10p9-10p9-10p9-10--10p9-10p9-10p9--12-10-9-10-9------|
G|-----------------------------------------------------------------------11-9-|2x
D|----------------------------------------------------------------------------|
A|----------------------------------------------------------------------------|
E|----------------------------------------------------------------------------|

Verse:
A      F#m       D           E
Usa ka gabi-i didto sa mig sa aroma
A       F#m      D         E
may nakaila kung gwapang dalaga
A           F#m        D       E
Hot kaayo og ngabil si Inday Michelle
A        F#m      D          E
Mura mura gyud og lips of an angel


Pre-chorus:
C#m        D          C#m         D
Panilap ko og naglaway sa paa og sampot ni Inday
C#m            D                Bm                E
Dughan pay imo lingin nga talinis daw magellan's cross ang hugis

(Repeat Chorus)

Riff 3 (A-F#m-D-E-;)
e|----------------------------------------------------------------------------|
B|-10-10p9-10p9-10p9-10--10p9-10p9-10p9-10--10p9-10p9-10p9--12-10-9-10-9------|
G|-----------------------------------------------------------------------11-9-|2x
D|----------------------------------------------------------------------------|
A|----------------------------------------------------------------------------|
E|----------------------------------------------------------------------------|

Adlib (A-F#m-D-E-;)
e|----------------------------------------------------------------------------------|
B|-10-12b-10-12b-10--5-5/-7--7/9-7-5-5--10/12-10-9p10p9-------10/12-10-9p10p9-------|
G|------------------------------------------------------11-9------------------11-9--|
D|----------------------------------------------------------------------------------|
A|----------------------------------------------------------------------------------|
E|----------------------------------------------------------------------------------|

e --------9p10p910p----9-10-12---|
B --10/12----------10------------|
G -------------------------------|
D -------------------------------|
A -------------------------------|
E -------------------------------|

Pre-chorus:
C#m            D               C#m         D
Nag panlad-ok ko sa akong laway sa paa og sampot ni Inday
C#m            D                 Bm               E
Dughan pay imo lingin nga talinis daw magellan's cross ang hugis

Chorus:
A       F#m         D          E
Bisag walay palaman payter kaayong tila-an
A         F#m           D         E
Mubalitok, mutuwad, mulaguka hala ungad
A           F#m        D        E
Mata piyong piyongon kagilok pamati-on
  A      F#m    D   E
Sa bingka na pinaliki

              A     F#m
Tilawi ang lami
    D          E
Tilawi ang lami
              A     F#m
Tilawi ang lami
    D      E
Tilawi tilawi
              A     F#m
Tilawi ang lami
    D          E
Tilawi ang lami
              A     F#m
Tilawi ang lami
    D      E
Tilawi tilawi
          A
Tilawi ang lami
Добавлено: 03.11.2013
Вам также может быть интересно:
Другие материалы по этой песне:
  • Аккорды и текст

Страница создана 03.11.2013
http://primanota.ru/agipo/tilawi-ang-lami-chords.htm
Привет, Гость.
Предлагаем пройти революционный курс по гитаре.
Подарок от PrimaNota.Ru, забирай!