PrimaNota.ru - самый крупный в мире бесплатный архив песенных текстов, аккордов, табулатур и нот


Aghora - Satya - текст песни, бас-таба, видео

Регистрация Запомнить меня
Войти через:  Facebook Google Twitter Vk Yandex Mail.ru

Aghora - Satya - текст песни, бас-таба, видео

Печатать
Просмотров: 186
AGHORA - SATYA
TABBED BY : COYPU [joba01@student.bth.se] - http://medieteknik.bth.se/joba01/
TUNING: BEADG

The tab should be pretty correct but I have probably missed some things here and there
so if you find any errors or have additions let me know!

INTRO
|------------------------------------|
|------------------------------------|
|------------------------------------|
|------------------------------------|
|-3--------3--------3--------3-------|

SECTION A
|-----------------3-----2---------------------------3-----2-------8-8-7-10-10-7-8-7-|
|*-----------4-5-----5-------5-4-5-------------4-5-----5------7/8------------------*|
|-------4/5----------------5--------------4/5---------------------------------------| 4x
|*---------------------------------------------------------------------------------*|
|-3--3------------------------------3--3--------------------------------------------|

REPEAT INTRO

SECTION B
|-----------------3-----------7------------------------3-----------------------|
|------------4-5-----5--------------8-------------4-5-----5--------------------|
|-------4/5-------------5---5---5-6----------4/5-------------5-----3-3-4-4-5-5-| 4x
|---------------------------------------------------------------5--------------|
|-3--3---------------------------------3--3------------------------------------|

FILL 1
|----12----12-14----------------------|
|-12----------------10----------------|
|-------------------------12-13----10-|
|-------10-------10----10-------10----|
|-------------------------------------|

SECTION C
|-------------------------------------------3-3-5-|
|-------------------------------------------------|
|--------------5-----------------------5----------| 8x
|-------------------------------------------------|
|-3---3--3--3-----3-3-3-3-3---3--3--3-----3-------|

REPEAT INTRO

FILL 2 
|---------------------|
|---------------------|
|---------5-5-8-6-5-6-|
|-8-8/10--------------|
|---------------------|

SECTION D
|-----------------3-----------7------------------------3-----2-------8-8-7-10-10-7-8-7-|
|------------4-5-----5--------------8-------------4-5-----5-----7/8--------------------|
|-------4/5-------------5---5---5-6----------4/5---------------------------------------| 
|--------------------------------------------------------------------------------------|
|-3--3---------------------------------3--3--------------------------------------------|

                                                          <----Very Fast----->
|-----------------3-----------7-----8-------------------7-----------------7-7-|
|------------4-5-----5--------------------------------------------------------|
|-------4/5-------------5---5---5-6----------4/5-----5----6-----------5-5-----|
|-------------------------------------------------5---------8-6-8-8-6---------|
|-3--3---------------------------------3--3-----------------------------------|

|-----------------3-----------7------------------------3-----------------------|
|------------4-5-----5--------------8-------------4-5-----5--------------------|
|-------4/5-------------5---5---5-6----------4/5-------------5-----3-3-4-4-5-5-| 
|---------------------------------------------------------------5--------------|
|-3--3---------------------------------3--3------------------------------------|

                                                          <----Very Fast----->
|-----------------3-----------7-----8-------------------7-----------------7-7-|
|------------4-5-----5--------------------------------------------------------|
|-------4/5-------------5---5---5-6----------4/5-----5----6-----------5-5-----|
|-------------------------------------------------5---------8-6-8-8-6---------|
|-3--3---------------------------------3--3-----------------------------------|

REPEAT SECTION C

SECTION E
|---------------5-7-------5-7-------5-7-----11--------|
|-----------5-7-----4-5-4-----4-5-4-----------12-10-7-|
|-5---5-6-9-----------------------------9-10----------| 3x
|---8-------------------------------------------------|
|-----------------------------------------------------|

SECTION F                          this            or            this
|---------------------|-----8-7-5-----------7-8-11-..---------------------------|
|0-------1--------4\3-|-0---------7-5-4-5-7--------..-7-7-7-7-7-7-7-7-7-7-7-7-7-|
|----3------6-4-6-----|---6------------------------..---------------------------| 2x
|---------------------|----------------------------..---------------------------|
|---------------------|----------------------------..---------------------------|

SECTION G
|-----------------------------------------|
|-----------------------------------------|
|-----------------3-3-----------------3-3-| 8x ?
|--------------5-------------------5------|
|-3---3--3--3---------3---3--3--3---------|

|-----------------------|
|-----------------------|
|-------------------3-3-| 8x
|-------3--------3------|
|-1--1-----1--1---------|

SECTION H
|----5-|
|------|
|3-3---| 32x
|------|
|------|

|--3-5---3-6----3-5---3-6---|
|---------------------------|
|3-----3------3-----3-----3-| 4x
|---------------------------|
|---------------------------|

FILL 3
|-----------------------------------------9-6-----------|
|-------------8--------11-8-11-11p10-8----------------11|
|-8-10-11p9-8---7-10-7-----------------10-------7---10--|
|---------------------------------------------8---8-----|
|-------------------------------------------------------|

REPEAT SECTION C
REPEAT SECTION B

SECTION I      add this variation at times and repeat the whole section until it fades out.
|-------------|-------|
|-------------|-------|
|-------------|-----4-|
|-3-4-5-4-5-6-|-3-4---|
|-------------|-------|
Добавлено: 05.07.2012
Другие материалы по этой песне:

Страница создана 31.03.2012
http://primanota.ru/aghora/satya-chords.htm
Привет, Гость.
Предлагаем пройти революционный курс по гитаре.
Подарок от PrimaNota.Ru, забирай!