PrimaNota.ru - самый крупный в мире бесплатный архив песенных текстов, аккордов, табулатур и нот


Agents - Moskovan Valot - аккорды и текст, видео

Регистрация Запомнить меня
Войти через:  Facebook Google Twitter Vk Yandex Mail.ru

Agents - Moskovan Valot - аккорды и текст, видео

Печатать
Просмотров: 108
Уроки эстрадного вокала в Санкт-Петербурге
Авторы музыки: Тихон Хренников
Авторы текста: Pauli Salonen
Moskovan Valot
Agents
                                                  Agents & Jorma Kääriäinen
                                                           -Moskovan Valot-

Intro:
    Dm    Dm7/C  Bb7M    D7/A    Gm6           A7         G#dim7   E7          A7   Bb     A7
e ----------------10----------|---------------------|-----------------------|---------------------|
h ------------10---------13~--|--11------13-11-10~--|--9h10p9---------------|---------------------|
G --------10------------------|------12-------------|----------10--9~--7~---|--6~-----------------|
D --12!-----------------------|---------------------|-----------------------|-------7h8-8--7~--\--|
A ----------------------------|---------------------|-----------------------|---------------------|
E ----------------------------|---------------------|-----------------------|---------------------|

      Dm     Gm6     A7   Dm  Gm Dm  A7     Dm     C7         F     Esus4#5 Eb
Sinut kerran löysin  ystäväin,       kuljit hetken yössä vierelläin

D7     Gm                      Dm
Silmäs mua katsoi niin, kutsui lemmen haaveisiin 

          Gm6    A7         Dm  A7  Dm/F
Ja meille loisti valot moskovan

D7/F#  Gm                      Dm
Silmäs mua katsoi niin, kutsui lemmen haaveisiin 

          Gm6    A7         Dm   Dm7/C  Bb7M    D7/A  Gm6  A7 
Ja meille loisti valot moskovan
    
           Dm     Gm6   A7  Dm  Gm Dm  A7       Dm     C7          F   Esus4#5 Eb
Vaan aamun tullen sinut kadotin,       pois kun sammui valot kaupungin

D7     Gm                      Dm
Sanoit hiljaa näkemiin, lyhdyn alla erottiin

        Gm6    A7          Dm   A7  Dm/F
Nyt sua näänkö enää milloinkaan

D7/F#  Gm                      Dm         
Sanoit hiljaa näkemiin, lyhdyn alla erottiin

        Gm6    A7          Dm   Dm7/C  Bb7M    D7/A  Gm6  A7 
Nyt sua näänkö enää milloinkaan

Soolo:
          Dm          Gm6    A7     Dm  Gm  Dm  A7       Dm              C7             F     Esus4#5 Eb
e ---------------------------------------|------------------------------------------------------|
h ---------------------------------------|------------------------------------------------------|
G --------10~---10-10-10--9--12-10-------|---------------10~---10-10--10-10--9--10-12-----------|
D ----------------------------------12~--|------------------------------------------------------|
A --12!----------------------------------|------12!-12!---------------------------------10/12~--|
E ---------------------------------------|------------------------------------------------------|
    D7            Gm                              Dm                            Gm6     A7            Dm A7 Dm/F
e ----------------8tr-6tr-8tr-6tr------|----------6tr-5tr-6tr-5tr---------------5tr-3tr-------------3tr-5tr---|
h --10tr-9tr-10tr-----------------5tr--|--6tr-8tr-----------------3tr---5tr-6tr---------6tr-5tr-6tr-----------|
G -------------------------------------|----------------------------------------------------------------------|
D -------------------------------------|----------------------------------------------------------------------|
A -------------------------------------|----------------------------------------------------------------------|
E -------------------------------------|----------------------------------------------------------------------|
    D7/F#   Gm             Dm                         Gm6     A7              Dm          
e --5tr-4tr-5tr----3tr-5tr-3tr--------5tr-3tr------|--5tr-3tr---------3tr--------------|
h --------------------------------6tr---------6tr--|----------6tr-5tr-----6tr-3tr------|
G -------------------------------------------------|-----------------------------------|
D -------------------------------------------------|-----------------------------------|
A -------------------------------------------------|-----------------------------------|
E -------------------------------------------------|-----------------------------------|

Intro pianolla

    Dm    Gm6  A7  Dm  Gm Dm  A7   Dm    C7          F   Esus4#5 Eb
Yhä etsin yhtä ikkunaa,       näen niitä monta miljoonaa

D7     Gm                      Dm
Kuljen iltaan tummuvaan, valot kertoo muistojaan

           Gm6    A7       Dm   A7  Dm/F
Ja tiedän, en voi sua unhoittaa

D7/F#  Gm                      Dm
Kuljen iltaan tummuvaan, valot kertoo muistojaan

           Gm6    A7       Dm   
Ja tiedän, en voi sua unhoittaa

Intro pianolla
Добавлено: 19.10.2015
Другие материалы по этой песне:
  • Аккорды и текст

Страница создана 19.10.2015
http://primanota.ru/agents/moskovan-valot-chords.htm
Привет, Гость.
Предлагаем пройти революционный курс по гитаре.
Подарок от PrimaNota.Ru, забирай!