PrimaNota.ru - самый крупный в мире бесплатный архив песенных текстов, аккордов, табулатур и нот


Agents Of Change - Robin Hood X John Brown - бас-таба, видео

Регистрация Запомнить меня
Войти через:  Facebook Google Twitter Vk Yandex Mail.ru

Agents Of Change - Robin Hood X John Brown - бас-таба, видео

Печатать
Просмотров: 85
in the key of C minor, also maybe C harmonic minor?

everything goes from Cm to Gm
notes in parenthesis are roots
there are probably parts that dont sound exact and at some points things are changed up slightly

Intro
G|----------3-3/5-7/8\7-5-3/5\3-|----------------------------|
D|----5h6p6---------------------|-5-3h5h6-6/8\6-5-5h6p5-3----|
A|--3---------------------------|-------------------------6--|
E|------------------------------|----------------------------|

Chorus/Verse (Reggae Part)
G|-------------------------------|----------------------------------------|
D|-------------------------------|-----------------------5-6-5-3-5-3------|
A|--3---1/3---6-5------------6-2-|-3---1/3---6-5---------------------6-5--|
E|----------------3---1/4--------|---------------3---1/4------------------|

Alternate Intro (Punk Part)
G|--------------------3h5-55-555-8-7-5-3-|----------------------3h5p3------------------------|
D|-----------5-55-555--------------------|-5-55-555-3h5-5h6-666-------6-666-5-6-5-3-5-3------|
A|--3-33-333-----------------------------|----------------------------------------------6-5--|
E|---------------------------------------|---------------------------------------------------|

Breakdown
G|--play-like-X-x-x-X-x-x-X-x--|-----------------------------|
D|-----------------------------|-----------------------------|
A|--3-3-1--3-3-1--3-3-1--6-6-5-|-----------------------------|
E|-----------------------------|-3-3-1--3-3-1--3-3-1--3-4-6--|
Добавлено: 24.07.2015
Другие материалы по этой песне:
  • Аккорды и текст

Страница создана 24.07.2015
http://primanota.ru/agents-of-change/robin-hood-x-john-brown-chords.htm
Привет, Гость.
Предлагаем пройти революционный курс по гитаре.
Подарок от PrimaNota.Ru, забирай!