PrimaNota.ru - самый крупный в мире бесплатный архив песенных текстов, аккордов, табулатур и нот


Agent Orange - Whats The Combination - бас-таба, видео

Регистрация Запомнить меня
Войти через:  Facebook Google Twitter Vk Yandex Mail.ru

Agent Orange - Whats The Combination - бас-таба, видео

Печатать
Просмотров: 125
track - whats the combination?
artist - agent orange
album - surfing to some f#*ked up s@!t

intro/verse
G|-----------------------------------------|
D|-----------------------------------------|
A|-4-4-4-4-----------------7-7-6-6---------|
E|---------4-4-4-4-5-5-5-5-----------------|

bridge from verse to chorus
G|---------|
D|---------|
A|-4-4-4-4-|x4
E|---------|

G|---------|
D|---------|
A|-6-6-6-6-|x2
E|---------|

G|---------------------|
D|---------6-6-6-6-6-6-|
A|-7-7-7-7-------------|
E|---------------------|

chorus

G|--------------------------------------------------|
D|--------------------------------------------------|
A|-4--4-4-4-3-2--2-2-2-2-2-2-2-2---0-0-0-0-0-0-0-0--|
E|-------------------------------4------------------|

G|--------------------------------------------------|
D|------------2-2-2-2-2-2-2-2-3-4-4-4-4-4-4-4-4-----|
A|-4--4-4-4-3---------------------------------------|
E|--------------------------------------------------|

G|--------------------------------------------------|
D|--------------------------------------------------|
A|-4--4-4-4-3-2--2-2-2-2-2-2-2-2---0-0-0-0-0-0-0-0--|
E|-------------------------------4------------------|

G|--------------------------------------------------|
D|------------2-2-2-2-2-2-2-2-3-4-4-4-4-6-6-6-6-----|
A|-4--4-4-4-3---------------------------------------|
E|--------------------------------------------------|

the backing for the solo is the chours

----------

I'm preety sure im right for the chrous and verse, not as sure about the bridge.
its my first tab, so if you want to give me feedback my email is xevious1@rocketmail.com

enjoy (:
Добавлено: 24.03.2012
Вам также может быть интересно:
Другие материалы по этой песне:
  • Аккорды и текст

Страница создана 24.03.2012
http://primanota.ru/agent-orange/whats-the-combination-chords.htm
Привет, Гость.
Предлагаем пройти революционный курс по гитаре.
Подарок от PrimaNota.Ru, забирай!