PrimaNota.ru - самый крупный в мире бесплатный архив песенных текстов, аккордов, табулатур и нот


Agent Bulldogg - Vad Du En Gang Sa - таба, видео

Регистрация Запомнить меня
Войти через:  Facebook Google Twitter Vk Yandex Mail.ru

Agent Bulldogg - Vad Du En Gang Sa - таба, видео

Печатать
Просмотров: 91
Vad Du En Gang Sa by:Agent Bulldogg.

Intro lead:
E|-----2-------2---3-5-3-------2-------2---3-5-3--|
B|-0-3---3-0-3---3---------0-3---3-0-3---3--------|
G|------------------------------------------------|
D|------------------------------------------------|
A|------------------------------------------------|
E|------------------------------------------------|

E|-------2-------2-------2-------2-3-5-3-------2-------2---3-5-3-|
B|-0-2-3---0-2-3---0-2-3---0-2-3-----------0-3---3-0-3---3-------|
G|---------------------------------------------------------------|
D|---------------------------------------------------------------|
A|---------------------------------------------------------------|
E|---------------------------------------------------------------|

Intro rhythm:
E|---------------------------------------------------------------|
B|---------------------------------------------------------------|
G|---------------------------------------------------------------|
D|-4-44------------4-44------------4-44------------4-44----------|
A|-2-22----5-55----2-22----5-55----2-22----5-55----2-22----5-55--|
E|---------3-33------------3-33------------3-33------------3-33--|

Verse:
E|----------------------------------------------------------------------------|
B|----------------------------------------------------------------------------|
G|----------------------------------------------------------------------------|
D|-4-4-4-4-4-4-4-4-4-4-4-4-4-4-4-4-------4-4-4-4-4-4-4-4-4-4-4-4-4-4-4-4------|
A|-2-2-2-2-2-2-2-2-2-2-2-2-2-2-2-2-5-----2-2-2-2-2-2-2-2-2-2-2-2-2-2-2-2-5----|
E|---------------------------------3-------------------------------------3----|

E|--------------------------------------|
B|--------------------------------------|
G|--------------------------------------|
D|-7-7-7-7-7-7-7-7-7-7-7-7-7-7-7-7------|
A|-5-5-5-5-5-5-5-5-5-5-5-5-5-5-5-5-7----|
E|---------------------------------5----|

E|----------------------------------------------------------------------------|
B|----------------------------------------------------------------------------|
G|----------------------------------------------------------------------------|
D|-4-4-4-4-4-4-4-4-4-4-4-4-4-4-4-4-------4-4-4-4-4-4-4-4-4-4-4-4-4-4-4-4------|
A|-2-2-2-2-2-2-2-2-2-2-2-2-2-2-2-2-5-----2-2-2-2-2-2-2-2-2-2-2-2-2-2-2-2-5----|
E|---------------------------------3-------------------------------------3----|

E|--------------------------------------|
B|--------------------------------------|
G|--------------------------------------|
D|-7-7-7-7-7-7-7-7-7-7-7-7-7-7-7-7------|
A|-5-5-5-5-5-5-5-5-5-5-5-5-5-5-5-5-7----|
E|---------------------------------5----|

Chorus:
E|--------------------------|
B|--------------------------|
G|-----------2-2-2-2--------|
D|-----------0-0-0-0--2-----|
A|---5---7------------0-5---|
E|---3---5--------------3---|x3

E|------------------------------------|
B|------------------------------------|
G|-----------2---2-2-2-2-2-2-2-2-2-2--|
D|-------2---0---0-0-0-0-0-0-0-0-0-0--|
A|---5---0----------------------------|
E|---3--------------------------------|

By:themechanix100@hotmail.com
Добавлено: 16.09.2013
Другие материалы по этой песне:
  • Аккорды и текст

Страница создана 16.09.2013
http://primanota.ru/agent-bulldogg/vad-du-en-gang-sa-chords.htm
Привет, Гость.
Предлагаем пройти революционный курс по гитаре.
Подарок от PrimaNota.Ru, забирай!