PrimaNota.ru - самый крупный в мире бесплатный архив песенных текстов, аккордов, табулатур и нот


Agent Bulldogg - Dodens Ros - таба, видео

Регистрация Запомнить меня
Войти через:  Facebook Google Twitter Vk Yandex Mail.ru

Agent Bulldogg - Dodens Ros - таба, видео

Печатать
Просмотров: 83
Dodens Ros by:Agent Bulldogg.

Intro:
   A               F               C               D
E|-----------------------------------------------------------------|
B|-----------------------------------------------------------------|
G|-------------------------------------------------2-2-2-2-2-2-2-2-|
D|-2-2-2-2-2-2-2-2-----------------5-5-5-5-5-5-5-5-0-0-0-0-0-0-0-0-|
A|-0-0-0-0-0-0-0-0-3-3-3-3-3-3-3-3-3-3-3-3-3-3-3-3-----------------|
E|-----------------1-1-1-1-1-1-1-1---------------------------------|
   . . . . . . . . . . . . . . . . . . . . . . . . . . . . . . . .
Verse:
   A           F           C           D
E|-------------------------------------------------|
B|-------------------------------------------------|
G|-------------------------------------------------|
D|-2-2-2-2-2-2-------------5-5-5-5-5-5-7-7-7-7-7-7-|
A|-0-0-0-0-0-0-3-3-3-3-3-3-3-3-3-3-3-3-5-5-5-5-5-5-|
E|-------------1-1-1-1-1-1-------------------------|

Chorus:
     D   F   G   C
E|------------------|----------|
B|------------------|----------|
G|---2--------------|----------|
D|---0-----------5--|-----5-7--|
A|-------3---5---3--|-5-7------|
E|-------1---3------|----------|
                    |Second guitar while the C is ringing.

Interlude:
    A             F            G             E
E|----------------------------------------------------------|
B|----------------------------------------------------------|
G|----------------------------------------------------------|
D|----------------------------------------------------------|
A|----------------------------------------------------------|
E|-/5-5-5--5-5-5--1--1-1--1-1-/3-3-3--3-3-3--0-0-1-0-3-0-0--|

Bridge:
    A     F     C     D
E|--------------------------|
B|--------------------------|
G|--------------------------|
D|--2--2--------5--5--7--7--|
A|--0--0--3--3--3--3--5--5--|
E|--------1--1--------------|

Play verse riff under solo.

Outro:
   D           F           G
E|-------------------------------------------------|
B|-------------------------------------------------|
G|-2-2-2-2-2-2-------------------------------------|
D|-0-0-0-0-0-0-------------------------------------|
A|-------------3-3-3-3-3-3-5-5-5-5-5-5-5-5-5-5-5-5-|
E|-------------1-1-1-1-1-1-3-3-3-3-3-3-3-3-3-3-3-3-|

By: themechanix100
Добавлено: 08.09.2013
Другие материалы по этой песне:
  • Аккорды и текст

Страница создана 08.09.2013
http://primanota.ru/agent-bulldogg/dodens-ros-chords.htm
Привет, Гость.
Предлагаем пройти революционный курс по гитаре.
Подарок от PrimaNota.Ru, забирай!