PrimaNota.ru - самый крупный в мире бесплатный архив песенных текстов, аккордов, табулатур и нот


Age Of Daze - Afflicted - таба, видео

Регистрация Запомнить меня
Войти через:  Facebook Google Twitter Vk Yandex Mail.ru

Age Of Daze - Afflicted - таба, видео

Печатать
Просмотров: 953
-----------------------------------------------------------------------
                             AFFLICTED – Age Of Daze
-----------------------------------------------------------------------
Tabbed by: trenda
Email:

Tuning: Standard
http://www.ageofdaze.com/

Song is played tuned down ½ step.  Chorus is basically Em, C, G, D.  Great band, 
there are no tabs already for them.  Enjoy.

Intro

    Q  Q  Q  Q      Q  Q  Q  Q     b  Q  Q  Q     E E  Q  Q  Q
e --------------|---------------|--------------|----------------|
B --------------|---------------|--------------|----------------|
G --------4-----|---------------|--------7-----|-------2--4—-5--|
D -----2-----2--|------4--5-----|-----5-----5--|----2-----------|
A --------------|--/5-----------|--------------|--0-------------|
E --0-----------|------------3--|--------------|----------------|


| /  slide up
| \  slide down
| h  hammer-on
| p  pull-off
| ~  vibrato
| +  harmonic
| x  Mute note
======================================================================
Добавлено: 09.04.2012
Другие материалы по этой песне:
  • Аккорды и текст

Страница создана 09.04.2012
http://primanota.ru/age-of-daze/afflicted-chords.htm
Привет, Гость.
Предлагаем пройти революционный курс по гитаре.
Подарок от PrimaNota.Ru, забирай!