PrimaNota.ru - самый крупный в мире бесплатный архив песенных текстов, аккордов, табулатур и нот


Against Me - White People For Peace - аккорды и текст, таба, бас-таба, видео

Регистрация Запомнить меня
Войти через:  Facebook Google Twitter Vk Yandex Mail.ru

Against Me - White People For Peace - аккорды и текст, таба, бас-таба, видео

Печатать
Просмотров: 240
Уроки эстрадного вокала в Санкт-Петербурге
Авторы музыки: Laura Jane Grace
Авторы текста: Laura Jane Grace
White People For Peace
Against Me
note: on the second half of each verse, the 2nd guitar does this:
e--33-333-333-333-333-333-333-333--|
B--44-333-444-333-444-333-444-333--|
G--55-555-555-555-555-555-555-555--|
D--55-555-555-555-555-555-555-555--|
A--33-333-333-333-333-333-333-333--|
E----------------------------------|

-------------------------------------------------------------------------
White people for peace:


    Cm               Ab          Eb          Bb
e----------------------------------------------------------|
B----------------------------------------------------------|
G--------------------------------------------------3/5/3---|
D--3/5------5--3-------/6------6-5-----5/3-5/3--3/5------5-|
A-----------------6--3-------------------------------------|
E----------------------------------------------------------|
    Cm           Ab             Eb           Bb
e----------------------------------------------------------|
B-------------------8--------------------------------------|
G--3/5------5/7--8----8---8/10--12--12/10-12/10---8--7--5--|
D----------------------------------------------------------|
A----------------------------------------------------------|
E----------------------------------------------------------|

Cm
East and West cannot agree so the
Cm                                       Ab
generals gave call "gather troops at the border"
Cm
With guns at ready drawn and aimed
Cm                                                               Ab
and soldiers praying to a god to bless them with strength and courage

           Bb     Cm          Ab          Eb         Bb
And it was in his name that artillery lit the sky on fire
                Bb      Cm       Ab               Eb 
      Bb
The people sing protest songs to try and stop the soldier's gun

Cm                           Ab
Protest songs in response to military aggression
Eb                             Bb
Protest songs try and stop the soldier's gun
Bb
The battle Raged On...

    Cm               Ab          Eb          Bb
e--------------------------------------------------6/8/6---6/8---|
B-----------------------------------------------6/8------8-------|
G----------------------------------------------------------------|
D--3/5------5--3-------/6------6-5-----5/3-5/3-------------------|
A-----------------6--3-------------------------------------------|
E----------------------------------------------------------------|

Sirens filled the air and the ground shook with war
civilian casualties had been a cost that was predetermined
When interviewed for report victims plead in frustration
their claim that this was a war without a reason

And bureaucrats engaged in debate to try to reach a resolution
The people sing protest songs to try and stop the soldier's gun

Protest songs in response to military aggression
Protest songs try and stop the soldier's gun
The battle Raged On...

Protest songs in response to military aggression
Protest songs try and stop the soldier's gun
The battle Raged On...

solo:
e--8--6--6--6/8-6--6--8--6--6--6/8-6--6--------6------------------------|
B----------------------------------------8--6-----8^b-6--6--6/4-4/3-3/1-|

         Bb                   Cm           Ab             Eb
While the broadcast like their prayers went unanswered and ignored
Bb
God like the rest of the world just watched in silence
          Bb            Cm                Ab             Eb
There was purpose to be served there were fortunes to be earned
Bb
before a peace could be called to stop the fighting

Protest songs in response to military aggression
Protest songs try and stop the soldier's gun

Protest songs in response to military aggression
Protest songs try and stop the soldier's gun.

Protest songs in response to military aggression
Protest songs try and stop the soldier's gun

Protest songs in response to military aggression
Protest songs try and stop the soldier's gun
The battle Raged On...
Добавлено: 28.03.2012
Другие материалы по этой песне:

Страница создана 24.03.2012
http://primanota.ru/against-me/white-people-for-peace-chords.htm
Привет, Гость.
Предлагаем пройти революционный курс по гитаре.
Подарок от PrimaNota.Ru, забирай!