PrimaNota.ru - самый крупный в мире бесплатный архив песенных текстов, аккордов, табулатур и нот


Against Me - Scream It Until Youre Coughing Up Blood - бас-таба, видео

Регистрация Запомнить меня
Войти через:  Facebook Google Twitter Vk Yandex Mail.ru

Against Me - Scream It Until Youre Coughing Up Blood - бас-таба, видео

Печатать
Просмотров: 109
Band: Against Me
Album: Reinventing Axel Rose
Song: Scream it until your coughing up blood

Nice little bass line
Hopefully I've got it mostly correct
Comments and corrections are very welcome

Please Rate

Intro (0:01)

G|--------------------------|
D|--------------------------| 
A|---------2~---------------|
E|-0~--------------5-325-32-|

Verse (0:07) x 2

G|------------------|
D|---442-0---442-0--| 
A|-2-------2--------|
E|------------------|

G|------------------|
D|-2-0-2-4-5-4-5~---| 
A|------------------|
E|------------------|

G|------------------|
D|---442-0---442-0--| 
A|-2-------2--------|
E|------------------|

G|------------------|
D|---442-0----------| 
A|-0-------0--------|
E|-----------3-2-3--|

Then (0:23) x3

G|------------------|
D|------------------| 
A|--------------000-|
E|-0000001122222----|

G|------------------|
D|---442-0---442-0--| 
A|-2-------2--------|
E|------------------|

G|------------------|
D|---4-2-0---4-2-0--| 
A|-2-------2--------|
E|------------------|

Then (0:46)

G|------------------|
D|------------------| 
A|--------------000-|
E|-0000001122222----|

G|-----------|
D|-----------| 
A|-222222222-|
E|-----------|

Interlude 1 (0:52)

G|------------------|
D|------------------| 
A|---------5-4-5-7--| x3
E|-7--57--5---------|


Interlude 2 (1:00)

G|-------------------------------------------------------------------|
D|-----------------------444-2---0-----------------------------------| 
A|---------------------------------2~------2-4-5-0~------555-4-------|
E|-3~------------2-0~--------------------------------------------5---|

G|-------------------------------------------------------------------|
D|-----------------------444-2---0-----------------------------------| 
A|---------------------------------2~------2-4-5-0~------555-4-------| x2
E|-3~--------3---2-0~--------------------------------------------5---|

G|-------------------------------------------------------------------|
D|-------------------------------------------------------------------| 
A|---------------------------------2-2~------------0-0~--------------|
E|-3-3~------------0-0~----------------------------------------------|


Chorus (1:32) (really not sure with this)

G|------------------|
D|------------------| 
A|-2---2---2---0-0--|
E|------------------|

G|------------------|
D|------------------| 
A|------------------|
E|-3---3---3---2-2--|

G|------------------|
D|------------------| 
A|-2---2---5-4-5-7--|
E|------------------|

G|------------------|
D|------------------| 
A|------------------|
E|-3---3---3---2-2--|

G|------------------|
D|------------------| 
A|-2---2---2---0-0--|
E|------------------|

G|------------------|
D|------------------| 
A|------------------|
E|-3---3---3---2-2--|

G|------------------|
D|------------------| 
A|-2---2---2---0-0--|
E|------------------|


G|----------|
D|----------| 
A|-00000----|
E|------320-|


Interlude 3 (1:46) x3

G|------------------|
D|------------------| 
A|--------------000-|
E|-0000001122222----|

G|----------------------------------|
D|----------------------------------|
A|-2-5-4-5-2-5-4-5-2-5-4-5-2-5-4-5--|
E|----------------------------------|

Ending (2:08)

G|------------------|
D|------------------| 
A|--------------000-|
E|-0000001122222----|

G|----------------------------------|
D|----------------------------------|
A|-2-5-4-5-2-5-4-5-2~---------------|
E|----------------------------------|
Добавлено: 24.04.2012
Другие материалы по этой песне:
  • Аккорды и текст

Страница создана 24.04.2012
http://primanota.ru/against-me/scream-it-until-youre-coughing-up-blood-chords.htm
Привет, Гость.
Предлагаем пройти революционный курс по гитаре.
Подарок от PrimaNota.Ru, забирай!