PrimaNota.ru - самый крупный в мире бесплатный архив песенных текстов, аккордов, табулатур и нот


Against Me - Haste Killed Creativity - текст песни, таба, видео

Регистрация Запомнить меня
Войти через:  Facebook Google Twitter Vk Yandex Mail.ru

Against Me - Haste Killed Creativity - текст песни, таба, видео

Печатать
Просмотров: 93
As recorded by Against Me!
(From the 2000 Album AGAINST ME! [EP])

Transcribed by Greg Schilling
        

Words and Music by Tom Gabel
Arranged by Greg Schilling

Gtr I (E A D G B E) - 'Untitled'

 Intro
  Q.=60
  N.C.
 3/8     9/8
  Gtr I
  Q.      E  E E E E E  E  E E   E  E E E E E  E  E E
|------||-0------3------3------|-3------2------2------|
|-0----||----0-----0-------0---|----1-----1-------1---|
|------||------0-----0-------0-|------2-----2-------2-|
|------||----------------------|----------------------|
|------||----------------------|-0------------(0)-----|
|------||-0------------(0)-----|----------------------|
          H.           +Q.       H.           +Q.


  E  E E E E E  E  E E   E  E E E E E  E  E E
|-5------3------2------|-7------7------7-------|
|----4-----4-------4---|----0-----0-------0----|
|------2-----2-------2-|------0-----0-------0--|
|----------------------|-----------------------|
|-2------------(2)-----|-----------------------|
|----------------------|-0------------(0)------|
  H.           +Q.       H.           +Q.


  E  E E E E E  E  E E   E  E E E E E  E  E E
|-0------3------3------|-3------2------2------|
|----0-----0-------0---|----1-----1-------1---|
|------0-----0-------0-|------2-----2-------2-|
|----------------------|----------------------|
|----------------------|-0------------(0)-----|
|-0------------(0)-----|----------------------|
  H.           +Q.       H.           +Q.


  E  E E E E E  E  E E   E  E E  E  E  E  Q.
|-5------3------2------|-0------12-------------|
|----4-----4-------4---|----0------12----------|
|------2-----2-------2-|------0-------12--0----|
|----------------------|-----------------------|
|-2------------(2)-----|-----------------------|
|----------------------|-0---------------(0)---|
  H.           +Q.       H.              +Q.


  E  E E E E E  E  E E   E  E E E E E  Q.
|-0------3-----/7------|-7------5-----/8----|
|----0-----0-------5---|----5-----5---------|
|------0-----0-------0-|------0-----0-------|
|----------------------|--------------------|
|----------------------|-0------------(0)---|
|-0------------(0)-----|--------------------|
  H.           +Q.       H.           +Q.


  E  E E E E E  Q   E   E  E E E E E  E  E E
|-2------3-----/5-----|-5------3------7------|
|----0-----0----------|----0-----0-------0---|
|------0-----0-/5---0-|------0-----0-------0-|
|-0------------(0)----|----------------------|
|---------------------|----------------------|
|---------------------|-3------------(3)-----|
  H.           +Q.      H.           +Q.


  E  E E E E E  E  E E   E  E E  E  E E E E E
|-0------3------3------|-3-------2------2-----|
|----0-----0-------0---|----1-------1-----1---|
|------0-----0-------0-|------2-------2-----2-|
|----------------------|----------------------|
|----------------------|-0------(0)-----------|
|-0------------(0)-----|----------------------|
  H.           +Q.       Q.     +H.


  E  E E E E E  E  E E   E  E E  E   E  E  +Q.     H.      Q.
|-5------3------2------|-0------12---------------|---------------||
|----4-----4-------4---|----0-------12-----------|---------------||
|------2-----2-------2-|------0--------12-(12)---|---------------||
|----------------------|-------------------------|---------------||
|-2------------(2)-----|-------------------------|---------------||
|----------------------|-0------(0)--------------|---------------||
  H.           +Q.       Q.     +H.


   Verse
    Q=210
    $
    G/F#         Em/G         G
   3/4
    Q  E E E E   Q  E E E E   Q  E E E E   Q  E E E E  4x
||-------------|------------|------------|-------------||
||o-7--7-7-7-7-|-5--5-5-5-5-|-8--8-8-8-8-|-8--8-8-8-8-o||
||--0--0-0-0-0-|-0--0-0-0-0-|-0--0-0-0-0-|-0--0-0-0-0--||
||-------------|------------|------------|-------------||
||o------------|------------|------------|------------o||
||-------------|------------|------------|-------------||


    G
    Q  E E E E   Q  E E E E   Q  E E E E   Q  E E E E
||--7--7-7-7-7-|-7--7-7-7-7-|-7--7-7-7-7-|-7--7-7-7-7---||
||o-0--0-0-0-0-|-0--0-0-0-0-|-0--0-0-0-0-|-0--0-0-0-0--o||
||--0--0-0-0-0-|-0--0-0-0-0-|-0--0-0-0-0-|-0--0-0-0-0---||
||-------------|------------|------------|--------------||
||o------------|------------|------------|-------------o||
||-------------|------------|------------|--------------||


    G/F#         Em/G         G
    Q  E E E E   Q  E E E E   Q  E E E E   Q  E E E E
||-------------|------------|------------|--------------||
||o-7--7-7-7-7-|-5--5-5-5-5-|-8--8-8-8-8-|-8--8-8-8-8--o||
||--0--0-0-0-0-|-0--0-0-0-0-|-0--0-0-0-0-|-0--0-0-0-0---||
||-------------|------------|------------|--------------||
||o------------|------------|------------|-------------o||
||-------------|------------|------------|--------------||


  G
  Q  E E E E   Q  E E E E   Q  E E E E   Q  E E E E
|-7--7-7-7-7-|-7--7-7-7-7-|-7--7-7-7-7-|-7--7-7-7-7-||
|-0--0-0-0-0-|-0--0-0-0-0-|-0--0-0-0-0-|-0--0-0-0-0-||
|-0--0-0-0-0-|-0--0-0-0-0-|-0--0-0-0-0-|-0--0-0-0-0-||
|------------|------------|------------|------------||
|------------|------------|------------|------------||
|------------|------------|------------|------------||


   Chorus
    G            G/F#         Em           G5/D
    Q  E E E E   Q  E E E E   Q  E E E E   Q  E E E E
||--3--3-3-3-3-|-3--3-3-3-3-|-3--3-3-3-3-|-3--3-3-3-3--|
||o------------|------------|------------|-------------|
||-------------|------------|------------|-------------|
||--5--5-5-5-5-|-4--4-4-4-4-|-2--2-2-2-2-|-0--0-0-0-0--|
||o------------|------------|------------|-------------|
||-------------|------------|------------|-------------|


  Em/G         G5           G            G5
  Q  E E E E   Q  E E E E   Q  E E E E   Q  E E E E  4x
|------------|------------|------------|-------------||
|-5--5-5-5-5-|-3--3-3-3-3-|-0--0-0-0-0-|-3--3-3-3-3-o||
|-0--0-0-0-0-|-0--0-0-0-0-|-0--0-0-0-0-|-0--0-0-0-0--||
|------------|------------|------------|-------------||
|------------|------------|------------|------------o||
|------------|------------|------------|-------------||


 Post-Chorus
  G            Gadd9        G
  Q  E E E E   Q  E E E E   Q  E E E E   Q  E E E E
|-3--3-3-3-3-|-5--5-5-5-5-|-7--7-7-7-7-|-7--7-7-7-7-|
|-0--0-0-0-0-|-0--0-0-0-0-|-0--0-0-0-0-|-0--0-0-0-0-|
|-0--0-0-0-0-|-0--0-0-0-0-|-0--0-0-0-0-|-0--0-0-0-0-|
|------------|------------|------------|------------|
|------------|------------|------------|------------|
|------------|------------|------------|------------|


  Gadd11                    G
  Q  E E E E   Q  E E E E   Q  E E E E   Q  E E E E
|-8--8-8-8-8-|-8--8-8-8-8-|-7--7-7-7-7-|-7--7-7-7-7-|
|-0--0-0-0-0-|-0--0-0-0-0-|-0--0-0-0-0-|-0--0-0-0-0-|
|-0--0-0-0-0-|-0--0-0-0-0-|-0--0-0-0-0-|-0--0-0-0-0-|
|------------|------------|------------|------------|
|------------|------------|------------|------------|
|------------|------------|------------|------------|


    Em/G     G5           G
    Q.   E E E   Q.   E E E   H.        +H.
||-------------|------------|---------|---------||
||o-5----5-5-3-|-3----3-3-0-|-0-------|-(0)----o||
||--0----0-0-0-|-0----0-0-0-|-0-------|-(0)-----||
||-------------|------------|---------|---------||
||o------------|------------|---------|--------o||
||-------------|------------|---------|---------||


    N.C.
    E E E E E E   E E E E E E   E E E E E E   E E E E E E
||--------------|-------------|-------------|--------------|
||o-1h3-3-3-3-3-|-3p0-0-0-0-0-|-------------|--------------|
||--------------|-------------|-2h4-4p2-0-0-|-2h4-4p2-0-0--|
||--------------|-------------|-------------|--------------|
||o-------------|-------------|-------------|--------------|
||--------------|-------------|-------------|--------------|


                             1.
  E E E E E E   E E E E E E   Q  E E E E   Q  E E E E
|-------------|---------0-3-|-5--5-5-5-5-|-3--3-3------||
|-1h3-3-3-3-3-|-3p0-0-0-----|------------|--------0-0-o||
|-------------|-------------|------------|-------------||
|-------------|-------------|------------|-------------||
|-------------|-------------|------------|------------o||
|-------------|-------------|------------|-------------||


  2.
                                       To Coda
  Q.   Q  E   Q.   Q  E   Q.   Q  E   Q.   Q  E
|-7----7--x-|-7----7--x-|-7----7--x-|-7----7--x-|
|-----------|-----------|-----------|-----------|
|-----------|-----------|-----------|-----------|
|-----------|-----------|-----------|-----------|
|-----------|-----------|-----------|-----------|
|-----------|-----------|-----------|-----------|


                                      D.S. al Coda
  Q.   Q  E   Q.   Q  E   E E E E E E   E E E E E E
|-7----7--x-|-7----7--x-|-x-x-x-x-x-x-|-x-x-x-x-x-x-||
|-----------|-----------|-x-x-x-x-x-x-|-x-x-x-x-x-x-||
|-----------|-----------|-x-x-x-x-x-x-|-x-x-x-x-x-x-||
|-----------|-----------|-x-x-x-x-x-x-|-x-x-x-x-x-x-||
|-----------|-----------|-x-x-x-x-x-x-|-x-x-x-x-x-x-||
|-----------|-----------|-x-x-x-x-x-x-|-x-x-x-x-x-x-||


    &
    Q.   Q  E   Q.   Q  E   Q.   Q  E   Q.   Q  E   3x
||--7----7--x-|-7----7--x-|-7----7--x-|-7----7--x---||
||o-----------|-----------|-----------|------------o||
||------------|-----------|-----------|-------------||
||------------|-----------|-----------|-------------||
||o-----------|-----------|-----------|------------o||
||------------|-----------|-----------|-------------||


   Out-Chorus
    G            G/F#         Em           G5/D
    Q  E E E E   Q  E E E E   Q  E E E E   Q  E E E E
||--3--3-3-3-3-|-3--3-3-3-3-|-3--3-3-3-3-|-3--3-3-3-3--|
||o------------|------------|------------|-------------|
||-------------|------------|------------|-------------|
||--5--5-5-5-5-|-4--4-4-4-4-|-2--2-2-2-2-|-0--0-0-0-0--|
||o------------|------------|------------|-------------|
||-------------|------------|------------|-------------|


  Em/G         G5           G            G5
  Q  E E E E   Q  E E E E   Q  E E E E   Q  E E E E  5x
|------------|------------|------------|-------------||
|-5--5-5-5-5-|-3--3-3-3-3-|-0--0-0-0-0-|-3--3-3-3-3-o||
|-0--0-0-0-0-|-0--0-0-0-0-|-0--0-0-0-0-|-0--0-0-0-0--||
|------------|------------|------------|-------------||
|------------|------------|------------|------------o||
|------------|------------|------------|-------------||


 Outro
  G            Gsus2        G
  Q  E E E E   Q  E E E E   Q  E E E E   Q  E E E E
|-3--3-3-3-3-|-5--5-5-5-5-|-7--7-7-7-7-|-7--7-7-7-7-|
|------------|------------|------------|------------|
|-0--0-0-0-0-|-0--0-0-0-0-|-0--0-0-0-0-|-0--0-0-0-0-|
|------------|------------|------------|------------|
|------------|------------|------------|------------|
|------------|------------|------------|------------|


  C5/G                      G
  Q  E E E E   Q  E E E E   Q  E E E E   Q  E E E E
|-8--8-8-8-8-|-8--8-8-8-8-|-7--7-7-7-7-|-7--7-7-7-7-|
|------------|------------|------------|------------|
|-0--0-0-0-0-|-0--0-0-0-0-|-0--0-0-0-0-|-0--0-0-0-0-|
|------------|------------|------------|------------|
|------------|------------|------------|------------|
|------------|------------|------------|------------|


    Em/G         G5           G
    Q  E E E E   Q  E E E E   Q  E E E E   Q  E E E E   3x
||-------------|------------|------------|--------------||
||o-5--5-5-5-5-|-3--3-3-3-3-|-0--0-0-0-0-|-0--0-0-0-0--o||
||--0--0-0-0-0-|-0--0-0-0-0-|-0--0-0-0-0-|-0--0-0-0-0---||
||-------------|------------|------------|--------------||
||o------------|------------|------------|-------------o||
||-------------|------------|------------|--------------||


  Em/G         G5           G
  Q  E E E E   Q  E E E E   H.        +H.
|------------|------------|---------|--------*|
|-5--5-5-5-5-|-3--3-3-3-3-|-0-------|-(0)----*|
|-0--0-0-0-0-|-0--0-0-0-0-|-0-------|-(0)----*|
|------------|------------|---------|--------*|
|------------|------------|---------|--------*|
|------------|------------|---------|--------*|

Tablature Legend
----------------
 h   - hammer-on
 p   - pull-off
 b   - bend
 pb  - pre-bend
 r   - bend release (if no number after the r, then release immediately)
 /\  - slide into or out of (from/to "nowhere")
 s   - legato slide
 S   - shift slide
 - natural harmonic
[n]  - artificial harmonic
n(n) - tapped harmonic
 ~   - vibrato
 tr  - trill
 T   - tap
 TP  - trem. picking
 PM  - palm muting
\n/  - tremolo bar dip; n = amount to dip
 \n  - tremolo bar down
 n/  - tremolo bar up
/n\  - tremolo bar inverted dip
 =   - hold bend; also acts as connecting device for hammers/pulls
 <> - volume swell (louder/softer)
 x   - on rhythm slash represents muted slash
 o   - on rhythm slash represents single note slash

Misc Legend
-----------
 |  - bar
||  - double bar
||o - repeat start
o|| - repeat end
*|  - double bar (ending)
 :  - bar (freetime)
 $  - Segno
 &  - Coda
Tempo markers -  = BPM(8/16=s8/s16), where s8 = swing 8ths, s16 = swing 16ths
Добавлено: 15.10.2013
Другие материалы по этой песне:

Страница создана 01.04.2012
http://primanota.ru/against-me/haste-killed-creativity-chords.htm
Привет, Гость.
Предлагаем пройти революционный курс по гитаре.
Подарок от PrimaNota.Ru, забирай!