PrimaNota.ru - самый крупный в мире бесплатный архив песенных текстов, аккордов, табулатур и нот


Against Me - Graceful Concession - аккорды и текст, видео

Регистрация Запомнить меня
Войти через:  Facebook Google Twitter Vk Yandex Mail.ru

Against Me - Graceful Concession - аккорды и текст, видео

Печатать
Просмотров: 81
Graceful Concession
Against Me
This is off the New Wave B-sides.  It's an awesome song.

   Bm - Em - A - D - D5
e|-2-|--3--|-0-|-2-|-0-||
B|-3-|--5--|-2-|-3-|-2-||
G|-4-|--4--|-2-|-2-|-3-||
D|-4-|--2--|-2-|-0-|-0-||
A|-2-|--2--|-0-|---|---||
E|---|-----|---|---|---||

Bm             Em                      AM           D      D5 
Your talent outshines all that I could ever do or say
Bm             Em                      AM           D      D5
and me and my jealousy, I stole your songs and passed them off as my own
Bm             Em                      AM           D      D5
As much as I would like for it not to show
Bm                       Em                                      AM           D      D5
you can smell the stink on my breath and in my clothes, it's so obvious

G                        A             Bm 
oh if I could only be half the things you write about in your songs
G                  A             Bm
if I could only mean half as much to anyone

Bm             Em                      AM               D      D5 
and in my arrogance I write pages of anger hate and spite
Bm             Em                      AM           D      D5
all of the reasons I have to trust... absolutely no one
Bm             Em                AM              D      D5
today I heard you on my stereo and it shamed me,
Bm                          Em          AM           D      D5
yes it shamed me to think that I could be so unoriginal

G                        A             Bm 
oh if I could only be half the genius that you are
G                        A             Bm 
to feel such honest want, to show love

Bm-C#-D-Bm-Em-A

I would show you love

Under Solo
Bm        C#   D  Em   A


e|----------------------------------------------2------2------2--3-2-0--3-2-0--3--5v-5v-5v-5b-5b|
B|3-2-0--3-2-0--3-0---5-3-2--5-3-2--5-3-----5-3----5-3----5-------------------------------------|
G|----------------------------------------------------------------------------------------------|
D|----------------------------------------------------------------------------------------------|
A|----------------------------------------------------------------------------------------------|
E|----------------------------------------------------------------------------------------------|

G                        A              Bm
oh if I could only feel half as resolute in my beliefs,
G                    A                 Bm
if I could only sing with such bravery
G                  A                    Bm                    Bm-A-G-F#
I can not explain how much you mean to me
G                  A                              Bm
without your words, I would be lost. 
Добавлено: 13.11.2013
Другие материалы по этой песне:
  • Аккорды и текст

Страница создана 13.11.2013
http://primanota.ru/against-me/graceful-concession-chords.htm
Привет, Гость.
Предлагаем пройти революционный курс по гитаре.
Подарок от PrimaNota.Ru, забирай!