PrimaNota.ru - самый крупный в мире бесплатный архив песенных текстов, аккордов, табулатур и нот


Against Me - From Her Lips to God's Ears - текст песни, бас-таба, видео

Регистрация Запомнить меня
Войти через:  Facebook Google Twitter Vk Yandex Mail.ru

Against Me - From Her Lips to God's Ears - текст песни, бас-таба, видео

Печатать
Просмотров: 96
Уроки эстрадного вокала в Санкт-Петербурге
Intro
G|-------------------------------------|
D|-------------------------------------|
A|------------5--55--7>----------------|
E|2--2-22--5>-----------2--2-22--5>-0>-|

Verse
G|---------------------------------------------------|
D|---------------------------------------------------|
A|----------------555-555-777-777--------------------|
E|222-222-555-555-----------------222-222-555-555-0>-|

Chorus 
G|--------------------------------------|
D|--------------------------------------|
A|----------------------------5555------|
E|22022022-5555-0000-22022020------5555-|

G|------------------------------|
D|------------------------------|
A|----------------------7-5-4---|
E|22022020-5555-0000-0~-------7-|

Intro x1

Verse x1

Chorus x1

Bridge (Condoleeza! chanting)
G|---------------------------------------------------|
D|---------------------------------------------------|
A|----------------5-5-5-5-7-7-7-7--------------------|
E|2-2-2-2-5-5-5-5-----------------2-2-2-2-5-5-5-5-0>-|

G|---------------------|
D|---------------------|
A|------5>-7>----------|
E|2>-5>-------2>-5>-0>-|

Last chorus
G|---------------------------------------------------------|
D|---------------------------------------------------------|
A|----------------------------5555-------------------------|
E|22022022-5555-0000-22022020------5555-22022020-5555-0000-|

G|---------------|
D|---------------|
A|----7-5-4------|
E|0~--------7-0.-|

Good song might be missing a few fills but sounds good.
Please rate and comment.
Добавлено: 03.02.2014
Другие материалы по этой песне:
  • Аккорды и текст

Страница создана 22.05.2012
http://primanota.ru/against-me/from-her-lips-to-gods-ears-chords.htm
Привет, Гость.
Предлагаем пройти революционный курс по гитаре.
Подарок от PrimaNota.Ru, забирай!