PrimaNota.ru - самый крупный в мире бесплатный архив песенных текстов, аккордов, табулатур и нот


Against Me - Bastards Of Young - таба, видео

Регистрация Запомнить меня
Войти через:  Facebook Google Twitter Vk Yandex Mail.ru

Against Me - Bastards Of Young - таба, видео

Печатать
Просмотров: 104
Уроки эстрадного вокала в Санкт-Петербурге
Авторы музыки: Paul Westerberg
Авторы текста: Paul Westerberg
Against Me!
Bastards of Young Live

tabbed by: Rise_Againstme!

That's about it, pretty easy, this song isnt off of any
of their records, its a cover of the Replacements that
they play live on the "Against Me! Live at the Key Club DVD"

Intro:
           Lead Guitar
e--------------------------------------------------------|
b---4-7-4-7-4----------(x3)---4-7-4-7-4------------------|
g--------------4--6--------------------------------------|
d--------------------------------------------------------|
a--------------------------------------------------------|
e--------------------------------------------------------|

          Rythm Guitar (after first time of lead riff)
e-------------------------------------------------------------|
b-------------------------------------------------------------|
g---4444444444444---------------------------------------------|
d---4444444444444---(same chord throughout intro)-------------|
a---2222222222222---------------------------------------------|
e-------------------------------------------------------------|

Verse 1:
         Both Guitars (Lead Guitar plays it without the rythm)
e-------------------------------------------------------------|
b-------------------------------------------------------------|
g---------xx4-44----------------------------x4x44---(x2)------|
d---6x66--xx4-44--6x66--xx4-44--2x22--4x44--x4x44-------------|
a---6x66--xx2-22--6x66--xx4-44--2x22--4x44--x2x22-------------|
e---4x44----------4x44--xx2-22--0x00--2x22--------------------|


Chorus:
         Lead Guitar
e------------------------------------------------|
b--4-7-4-7-4-------4-7-4-7----4-2----------------|
g------------4--6-----------------3-1------(x2)--|
d-------------------------------------4----------|
a------------------------------------------------|
e------------------------------------------------|

        Rythm Guitar
e------------------------------------------------------------------|
b------------------------------------------------------------------|
g------------------4444444444444--(x2)---------------------x4x44---|
d-2222222222222222-4444444444444-------2222222-44444444----x4x44---|
a-2222222222222222-2222222222222-------2222222-44444444----x2x22---|
e-0000000000000000---------------------0000000-22222222------------|

Verse 2: Same as Verse 1

Chorus: Same

Bridge:
          Both Guitars
e----------------------------------------------|
b----------------------------------------------|
g--6666666666---6-4-2--------------------------|
d--6666666666---6-4-2-6--4-2~------------------|
a--4444444444---4-2-0-6--4-2~------------------|
e---------------------4--2-0~------------------|

Solo:
          Lead Guitar
e-------------7--9--11--12------------------7---------999--11-11----------|
b--8b--7--7h9-------------------8b--7--7h9----8b~~~-----------------------|
g------------------------------------------------------------------7b-----|
d-------------------------------------------------------------------------|
a-------------------------------------------------------------------------|
e-------------------------------------------------------------------------|

Verse 3: Same as Verse 1

Chorus: Same

Bridge 2:
          Both Guitars
e-------------------------------------------------------------------------|
b-------------------------------------------------------------------------|
g---8/6/4--8/6/4-------------------4444444444444444-(x2)------------------|
d---8/6/4--8/6/4--222222222222222--4444444444444444-------2222--4444------|
a---6/4/2--6/4/2--222222222222222--2222222222222222-------2222--4444------|
e-----------------000000000000000-------------------------0000--2222------|

Outro:
         Both Guitars
e------------------------------------------------------------------|
b------------------------------------------------------------------|
g-----8888-8888-8888-8888-8888-8888-8888-8888--8/--8/--8/----------|
d-----8888-8888-8888-8888-8888-8888-8888-8888--8/--8/--8/----------|
a-----6666-6666-6666-6666-6666-6666-6666-6666--6/--6/--6/----------|
e------------------------------------------------------------------|

let me know if any of it needs to be fixed, thanks
Добавлено: 05.08.2013
Другие материалы по этой песне:
  • Аккорды и текст

Страница создана 05.08.2013
http://primanota.ru/against-me/bastards-of-young-chords.htm
Привет, Гость.
Предлагаем пройти революционный курс по гитаре.
Подарок от PrimaNota.Ru, забирай!