PrimaNota.ru - самый крупный в мире бесплатный архив песенных текстов, аккордов, табулатур и нот


Against All Will - The Drug I Need - таба, видео

Регистрация Запомнить меня
Войти через:  Facebook Google Twitter Vk Yandex Mail.ru

Against All Will - The Drug I Need - таба, видео

Печатать
Просмотров: 93
---------------------------------------------------------------------
                        The Drug I Need - Against All Will
---------------------------------------------------------------------
Tabbed by: sonofguido
Email: wazevedo913@gmail.com

Official music video link: http://www.youtube.com/watch?v=J7BrdzCKwgs

This is my interpretation of the song.  Not too sure on Ch3:Pt2.
Feel free to leave questions/comments/corrections.  Enjoy!

Tuning: ***Drop Db/Drop C#*** (whatever you want to call it)
My amp is tuned (Db,Ab,Db,Gb,Bb,Eb)

Here are the chords. Listen to the song for timing and how many strokes.
Number of strokes I tabbed IS NOT accurate. 

Intro:
e|------------x--x--x----------------|-The------x--whichever-|
B|------------3--x--3----------------|-last-----x--you-------|
G|------------2--5--2----------------|-chord----7--prefer----|
D|--2--/5--0--0--5--0----------------|-could----7--sounds----|
A|--2--/5--0--0--3--0----------------|-instead--5--better----|
E|--2--/5--0--x--x--x----------------|-be-------x------------|


Verse 1:
Guitar 1 - Pt. 1 Light Distortion
e|--------0----------0----------0-----------------0----------|
B|------0---0------0---0------0---0--------------------------|
G|------9----------9----------9----------7------5------------|
D|----9----------9----------9----------7------5--------------|
A|--7----------7----------7----------5------3----------------|
E|-----------------------------------------------------------|
           Pt. 2
e|--------0----------0----------0----------------------------|
B|------0---0------0---0------0---0--------------------------|
G|------9----------9----------9------------------------------|
D|----9----------9----------9--------------------------------|
A|--7----------7----------7----------------------------------|
E|-----------------------------------------------------------|

Guitar 2 - Distortion (Palm Muted - Pt. 2 of Guitar 1)
e|-----------------------------------------------------------|
B|-----------------------------------------------------------|
G|-----------------------------------77777--55555------------|
D|--0/2222222--0/2222222--0/2222222--77777--55555------------|
A|--0/2222222--0/2222222--0/2222222--55555--33333------------|
E|--0/2222222--0/2222222--0/2222222--------------------------|


Chorus 1: x2
e|------------x--x--x----------------|-The------x--whichever-|
B|------------3--x--3----------------|-last-----x--you-------|
G|------------2--5--2----------------|-chord----7--prefer----|
D|--2--/5--0--0--5--0----------------|-could----7--sounds----|
A|--2--/5--0--0--3--0----------------|-instead--5--better----|
E|--2--/5--0--x--x--x----------------|-be-------x------------|


Verse 2:
Guitar 1 - Light Distortion
e|--------0----------0----------0-----------------0----------|
B|------0---0------0---0------0---0--------------------------|
G|------9----------9----------9----------7------5------------|
D|----9----------9----------9----------7------5--------------|
A|--7----------7----------7----------5------3----------------|
E|-----------------------------------------------------------|
           Pt. 2
e|--------0----------0----------0----------------------------|
B|------0---0------0---0------0---0--------------------------|
G|------9----------9----------9------------------------------|
D|----9----------9----------9--------------------------------|
A|--7----------7----------7----------------------------------|
E|-----------------------------------------------------------|

Guitar 2 - Distortion (Muted - Pt. 2 of Guitar 1)
e|-----------------------------------------------------------|
B|-----------------------------------------------------------|
G|-----------------------------------77777-------------------|
D|--0/2222222--0/2222222--0/2222222--77777-------------------|
A|--0/2222222--0/2222222--0/2222222--55555-------------------|
E|--0/2222222--0/2222222--0/2222222--------------------------|


Chorus 2: x2
e|----------x-x-x--------------------|-The------x--whichever-|
B|----------3-x-3--------------------|-last-----x--you-------|
G|----------2-5-2--------------------|-chord----7--prefer----|
D|--2-/5-0--0-5-0--------------------|-could----7--sounds----|
A|--2-/5-0--0-3-0--------------------|-instead--5--better----|
E|--2-/5-0--x-x-x--------------------|-be-------x------------|


Interlude: (Listen to song for strumming pattern/timing/muted parts
throughout, just ease fingers from strings.)
E|-----------------------------------------------------------|
B|-----------------------------------------------------------|
G|--9--7--5--7----9--7--5--7--9--11--------------------------|
D|--9--7--5--7----9--7--5--7--9--11--------------------------|
A|--7--5--3--5----7--5--3--5--7--9---------------------------|
E|-----------------------------------------------------------|


Chorus 3: Pt.1 x4
e|------------x--x--x----------------|-The------x--whichever-|
B|------------3--x--3----------------|-last-----x--you-------|
G|------------2--5--2----------------|-chord----7--prefer----|
D|--2--/5--0--0--5--0----------------|-could----7--sounds----|
A|--2--/5--0--0--3--0----------------|-instead--5--better----|
E|--2--/5--0--x--x--x----------------|-be-------x------------|

          Pt. 2 - last 2 measures of Pt. 1 (use alternate picking)
e|--------------------------|--Over--|-----------------------|
B|--7878787878787878787878--|--and---|--10-------------------|
G|--------------------------|--over.-|-----------------------|
D|--------------------------|--Then--|-----------------------|
A|--------------------------|--end---|-----------------------|
E|--------------------------|--on----|-----------------------|

************************************

| /   slide up
| \   slide down
| h   hammer-on
| p   pull-off
| ~   vibrato
| +   harmonic
| x   Mute note
| b   Bend
| pb  Pre-bend
| br  Bend release
| pbr Pre-bend release
| brb Bend release bend

************************************

Добавлено: 08.08.2013
Вам также может быть интересно:
Другие материалы по этой песне:
  • Аккорды и текст

Страница создана 08.08.2013
http://primanota.ru/against-all-will/the-drug-i-need-chords.htm
Привет, Гость.
Предлагаем пройти революционный курс по гитаре.
Подарок от PrimaNota.Ru, забирай!