PrimaNota.ru - самый крупный в мире бесплатный архив песенных текстов, аккордов, табулатур и нот


Against All Authority - The Excuse - аккорды и текст, таба, видео

Регистрация Запомнить меня
Войти через:  Facebook Google Twitter Vk Yandex Mail.ru

Against All Authority - The Excuse - аккорды и текст, таба, видео

Печатать
Просмотров: 150
Уроки эстрадного вокала в Санкт-Петербурге
The Excuse
Against All Authority
-------------------------------------------------------------------------------
           THE EXCUSE - Against All Authority
-------------------------------------------------------------------------------
 
By:I_Wanna_Riot@nazipunksfuckoff.com        (bob)

INTRO / CHORUS
G|---------------------------------------------------------------------------|
D|---------------------------------------------------------------------------|
A|------3-2-2-----2-1-1------------------------------------------------------|
E|--1-2-------1-2------------------------------------------------------------|

VERSE (play part before stars 3 times)
G|-------------------@-------------------------------------------------------|
D|-------------------@-------------------------------------------------------|
A|--------------3-3--@----------1-1-1-1--------------------------------------|
E|--1-1-1-1-2-2------@--4-4-4-4----------------------------------------------|

PRE-CHORUS (palm mute the last 2 chords the 2nd time)
e|---------------------------------------------------------------------------|
B|---------------------------------------------------------------------------|
G|---------------------------------------------------------------------------|
D|---------------------------------------------------------------------------|
A|--3-3-3-3-4-4-4-4----------------------------------------------------------|
E|------------------2-2-2-2-4-4-4-4------------------------------------------|
Добавлено: 05.09.2013
Другие материалы по этой песне:
  • Аккорды и текст

Страница создана 04.04.2012
http://primanota.ru/against-all-authority/the-excuse-chords.htm
Привет, Гость.
Предлагаем пройти революционный курс по гитаре.
Подарок от PrimaNota.Ru, забирай!