PrimaNota.ru - самый крупный в мире бесплатный архив песенных текстов, аккордов, табулатур и нот


Against All Authority - The Restoration Of Chaos & Order - текст песни, бас-таба, видео

Регистрация Запомнить меня
Войти через:  Facebook Google Twitter Vk Yandex Mail.ru

Against All Authority - The Restoration Of Chaos & Order - текст песни, бас-таба, видео

Печатать
Просмотров: 217
Авторы: Against All Authority

Against All Authority
The Restoration of Chaos and Order
The Restoration of Chaos and Order


Intro/Chorus:
-------------------------------------|
-------------------------------------|
---------------5-5---------5-5-------| x4
---0-0-0-0-5-5-----5-5-5-5-----5-5---|


Verse:
---------------------|
---------------------|
---2-------5---------| x4
-----2-2-2---5-5-5---|

Pre-Chorus:
---------------------|
---------------------|
-----------0-0-2-0---| x4
---2-2-2-2-----------|

Bridge:
-------------------------------------|
-------------------------------------|
---2-2-2-2---------5-5-5-5-----------| x2
-----------2-2-2-2---------5-5-5-5---|
Добавлено: 04.07.2012
Другие материалы по этой песне:
  • Аккорды и текст

Страница создана 26.03.2012
http://primanota.ru/against-all-authority/restoration-of-chaos-and-order-chords.htm
Привет, Гость.
Предлагаем пройти революционный курс по гитаре.
Подарок от PrimaNota.Ru, забирай!