PrimaNota.ru - самый крупный в мире бесплатный архив песенных текстов, аккордов, табулатур и нот


Against All Authority - Policeman - аккорды и текст, бас-таба, видео

Регистрация Запомнить меня
Войти через:  Facebook Google Twitter Vk Yandex Mail.ru

Against All Authority - Policeman - аккорды и текст, бас-таба, видео

Печатать
Просмотров: 138
Policeman
Against All Authority
-------------------------------------------------------------------------------
              POLICEMAN - Against All Authority
-------------------------------------------------------------------------------
 
By: I_Wanna_Riot@nazipunksfuckoff.com  (bob)

(play part before stars 4 times)
G|----------------------------@-----------------------------------------------|
D|----------------------------@-----------------------------------------------|
A|---------------------6-5-5--@-----------------------------------------------|
E|--5-5-5-1-4-4--5-5-5--------@--33333333333----------------------------------|
	           		 

(play part before stars twice)
G|---------------@------------------------------------------------------------|
D|---------------@------------------------------------------------------------|
A|---------------@------------------------------------------------------------|
E|--5-5-5-1-4-4--@--33333333333-----------------------------------------------|
		    


G|---------------------------------------------------------------------------|
D|---------------------------------------------------------------------------|
A|--------6-5-5--------6-5-5-------------------------------------------------|
E|--5-5-5--------5-5-5-------------------------------------------------------|

G|---------------------------------------------------------------------------|
D|---------------------------------------------------------------------------|
A|------------------3-3-3-3-3-3-3-3-------------------------5-5-5-5----------|
E|--5-5-5-5-5-5-5-5-----------------3-3-3-3-3-3-3-3-0-0-0-0------------------|

G|---------------------------------------------------------------------------|
D|---------------------------------------------------------------------------|
A|------------------3-3-3-3-3-3-3-3-2-2-2-2-2-2-2-2-3-3-3-3-3-3-3-3----------|
E|--5-5-5-5-5-5-5-5----------------------------------------------------------|

G|---------------------------------------------------------------------------|
D|---------------------------------------------------------------------------|
A|--2-2-2-2-2-2-2-2-3-3-3-3-3-3-3-3-2-2-3-3-2-2-3-3-2-2-3-3-2-2-3-3----------|
E|---------------------------------------------------------------------------|

REPEAT IT ALL ONCE
Добавлено: 26.02.2014
Другие материалы по этой песне:
  • Аккорды и текст

Страница создана 29.03.2012
http://primanota.ru/against-all-authority/policeman-chords.htm
Привет, Гость.
Предлагаем пройти революционный курс по гитаре.
Подарок от PrimaNota.Ru, забирай!