PrimaNota.ru - самый крупный в мире бесплатный архив песенных текстов, аккордов, табулатур и нот


Against All Authority - Mr International - таба, видео

Регистрация Запомнить меня
Войти через:  Facebook Google Twitter Vk Yandex Mail.ru

Against All Authority - Mr International - таба, видео

Печатать
Просмотров: 83
MR. INTERNATIONAL
Against All Authority


Intro: (Listen To Song For Strumming)
e-|-------|
B-|-------|
G-|-6-----|
D-|-6--7--| (x4)
A-|-4--7--|
E-|----5--|

Verse: (0:15)
e-|------------------------------|
B-|------------------------------|
G-|-6--9--8--9--8--6-----6--9--8-|
D-|-6--9--8--9--8--6--4--6--9--8-| 
A-|-4--7--6--7--6--4--4--4--7--6-|
E-|-------------------2----------|

(0:30)
e-|---------------------------------|
B-|---------------------------------|
G-|---------------------------------|
D-|-9--7--9--7--6--7--9--7--6--7--6-| 
A-|-9--7--9--7--6--7--9--7--6--7--6-|
E-|-7--5--7--5--4--5--7--5--4--5--4-|

Chorus: (0:45)
e-|----------------------------------------------------|
B-|----------------------------------------------------|
G-|-6-----4-----6--------------------------------------|
D-|-6--4--4--4--6--4---9--4--11--4--9--4---11--4--9--4-| 
A-|-4--4--2--4--4--4---9--4--11--4--9--4---11--4--9--4-|
E-|----2-----2-----2---7--2---9--2--7--2----9--2--7--2-|

Interlude: (1:00)
e-|----------|
B-|----------|
G-|-6-----11-|
D-|-6--4--11-| (x4)
A-|-4--4---9-|
E-|----2-----|

Bridge: (2:15)
e-|----------|
B-|----------|
G-|-6--------|
D-|-6--------| (Let Ring, with feedback)
A-|-4--------|
E-|----------|

(2:28)
e-|----------|
B-|----------|
G-|----------|
D-|----------| 
A-|-(Scrape)-|
E-|----------|

Outro: (2:30)
e-|------------------|
B-|------------------|
G-|-6--9--8--9--8--6-|
D-|-6--9--8--9--8--6-| (x4)
A-|-4--7--6--7--6--4-|
E-|------------------|

Order:
Intro x4
Verse
Chorus
Interlude x4
Verse
Chorus
Interlude x4
Bridge
Outro x4
Добавлено: 09.09.2013
Другие материалы по этой песне:
  • Аккорды и текст

Страница создана 09.09.2013
http://primanota.ru/against-all-authority/mr-international-chords.htm
Привет, Гость.
Предлагаем пройти революционный курс по гитаре.
Подарок от PrimaNota.Ru, забирай!