PrimaNota.ru - самый крупный в мире бесплатный архив песенных текстов, аккордов, табулатур и нот


Afterhours - The Ending Is The Greater - текст песни, таба, видео

Регистрация Запомнить меня
Войти через:  Facebook Google Twitter Vk Yandex Mail.ru

Afterhours - The Ending Is The Greater - текст песни, таба, видео

Печатать
Просмотров: 85
AFTERHOURS

E LA FINE LA PUI IMPORTANTE/THE ENDING IS THE GREATER

tabbed by dan (yellowledbetter_69@hotmail.co.uk)

standard tuning

|-----------|---------------------------------------------|
|-----------|---1-1-1-1--3-3-3-3--3-3-3-3-----------------|
|-----------|---2-2-2-2--0-0-0-0--0-0-0-0-----------------|
|-----------|---2-2-2-2--5-5-5-5--4-4-4-4--3h5-3h5-3h5-5\-|
|-----------|---0-0-0-0--5-5-5-5--5-5-5-5--3h5-3h5-3h5-5\-|
|-----------|------------------------------3-3-3-3-3-3-3\-|
 bass/drums        verse x2

|--------------------1-1-1-1-----------|
|--1-1-1-1--1-1-1-1--1-1-1-1--3-3-3-3--|
|--0-0-0-0--2-2-2-2--2-2-2-2--0-0-0-0--|
|--2-2-2-2--2-2-2-2--3-3-3-3--4-4-4-4--|
|--3-3-3-3--0-0-0-0--3-3-3-3--5-5-5-5--|
|--------------------------------------|
verse continued

|-----------3-3-3-3-------------------------|
|--1-1-1-1--3-3-3-3------3-------------4----|
|--2-2-2-2--0-0-0-0--------0---------0------|
|--2-2-2-2--0-0-0-0----4-----4-----5--------|
|--0-0-0-0--2-2-2-2--5---------5/6----------|
|-----------3-3-3-3-------------------------|
 verse continued

|--------------------------|-----------------------|
|--------------------------|-----------------------|
|--7b9r7-------------------|--7b9r7--5-------------|
|-------7-5-7---4h5p4-5/7--|-------7--7--4h5p4-5/7-|
|-------------7------------|-----------7-----------|
|--------------------------|-----------------------|
chorus              x2                     x1

|---------------------------|
|---------------------------|
|--7b9r7---------4h5p4-5/7--|
|-------7-5-7-7-------------|
|---------------------------|
|---------------------------|
chorus continued

there are a few alterations to the other verses, but the chords are the same so I won't 
tabbing.

|------------------------------------|
|------------------------------------|
|-------------------4h5p4h5p4h5------|
|--4h5p4h5p4h5-----------------5-5/7-|
|-------------5-5/7------------------|
|------------------------------------|
solo x2

|----------------------------------------------|
|-------8-8-10-8-------------------------------|
|--/9-9----------9--7-5---5-----7b9r7-5--------|
|-----------------------7---7-7--------7--5-7--|
|---------------------------------------7------|
|----------------------------------------------|
solo continued
repeat both solo parts again, then the chorus. that's everything. any comments 
etc, e-mail.
Добавлено: 28.09.2013
Другие материалы по этой песне:
  • Аккорды и текст

Страница создана 22.06.2012
http://primanota.ru/afterhours/the-ending-is-the-greater-chords.htm
Привет, Гость.
Предлагаем пройти революционный курс по гитаре.
Подарок от PrimaNota.Ru, забирай!