PrimaNota.ru - самый крупный в мире бесплатный архив песенных текстов, аккордов, табулатур и нот


Afterhours - Tema La Mia Citta - таба, видео

Регистрация Запомнить меня
Войти через:  Facebook Google Twitter Vk Yandex Mail.ru

Afterhours - Tema La Mia Citta - таба, видео

Печатать
Просмотров: 85
Afterhours

Tema: La Mia Citta

Standard Tuning

|---------------------------------------------------|
|---------------------------------------------------|
|---------------------------------------------------|
|---------------------------------------------------|
|--11-11-11-11--9-9-9-9--5-5--12-12--11-11-11-11----|
|---0--0--0--0--0-0-0-0--0-0---0--0---0--0--0--0----|
guitar 1 intro/chorus

|---------------------------------------------------|
|---------------------------------------------------|
|--16-16-16-16--14-14-14-14--9-9--13-13--9-9-9-9----|
|---x--x--x--x---x--x--x--x--x-x---x--x--x-x-x-x----|
|--14-14-14-14--12-12-12-12--7-7--11-11--7-7-7-7----|
|---------------------------------------------------|
guitar 2 intro/chorus

|---------------------------------------------------|
|---------------------------------------------------|
|---------------------------------------------------|
|---------------------------------------------------|
|--11-11-11-11--9-9-9-9--5-5--12-12--11-11-11-11----|
|---0--0--0--0--0-0-0-0--0-0---0--0---0--0--0--0----|
guitar 1 verse part 1

|---------------------------------------------------|
|---------------------------------------------------|
|--16-16-16-16-16-16-16-16-16-16-16-16-16-16-16-16--|
|---x--x--x--x--x--x--x--x--x--x--x--x--x--x--x--x--|
|--14-14-14-14-14-14-14-14-14-14-14-14-14-14-14-14--|
|---------------------------------------------------|
guitar 2 verse part 1

|--------------------------------------|
|--5-5-5-5-5-5-5-5---------------------|
|--6-6-6-6-6-6-6-6--6-6-6-6--5-5-5-5---|
|--6-6-6-6-6-6-6-6--7-7-7-7--6-6-6-6---|
|--4-4-4-4-4-4-4-4--7-7-7-7--6-6-6-6---|
|-------------------5-5-5-5--4-4-4-4---|
guitars 1 and 2 verse part 2

|---------------------------------------------|
|---------------------------------------------|
|---------------------------------------------|
|--7-7--8-8--9-9--10-10--7-7--6-6--5-5--4-4---|
|--7-7--8-8--9-9--10-10--7-7--6-6--5-5--4-4---|
|--5-5--6-6--7-7---8--8--5-5--4-4--3-3--2-2---|
guitars 1 and 2 verse part 2 continued

|--------------------------------------------------|
|--------------------------------------------------|
|--------------------------------------------------|
|--------------------------------------------------|
|-11-11-11-11-10-10-10-10--9--9--9--9--8--8--8--8--|
|--0--0--0--0--0--0--0--0--0--0--0--0--0--0--0--0--|
guitar 1 pre-chorus part 1

|--------------------------------------------------|
|--------------------------------------------------|
|--16-16-16-16-17-17-17-17-18-18-18-18-19-19-19-19-|
|---x--x--x--x--x--x--x--x--x--x--x--x--x--x--x--x-|
|--14-14-14-14-15-15-15-15-16-16-16-16-17-17-17-17-|
|--------------------------------------------------|
guitar 2 pre-chorus part 1

|-----------------------------------------|
|-----------------------------------------|
|-----------------------------------------|
|--9-9-9-9--8-8-8-8--7-7-7-7--6-6-6-6-----|
|--7-7-7-7--6-6-6-6--5-5-5-5--4-4-4-4-----|
|--0-0-0-0--0-0-0-0--0-0-0-0--0-0-0-0-----|
guitar 1 pre-chorus part 2

|---------------------------------------------------|
|--16-16-16-16-17-17-17-17-18-18-18-18-19-19-19-19--|
|---x--x--x--x--x--x--x--x--x--x--x--x--x--x--x--x--|
|--13-13-13-13-14-14-14-14-15-15-15-15-16-16-16-16--|
|---------------------------------------------------|
|---------------------------------------------------|
guitar 2 pre-chorus part 2


back to intro/chorus

verse 2 is same as verse 1

|----------------------------------------|
|----------------------------------------|
|----------------------------------------|
|----------------------------------------|
|--11-11-11-11--11--9--7-7-7-7-7-7-7-7---|
|---0--0--0--0---9--7--5-5-5-5-5-5-5-5---|
guitar 1 outro (best outro ever!)    repeat a lot.

|-----------|------------------------------------|
|-----------|------------------------------------|
|--16-16-16-|-----16--18--16-----16--18--16------|
|---x--x--x-|----------------18-------------18---|
|--14-14-14-|------------------------------------|
|-----------|------------------------------------|
play this 1st time only       guitar 2 outro   repeat this bar a lot.

that's pretty much everything there.
any requests/ corrections, suggestion etc. email me at yellowledbetter_69@hotmail.co.uk

Добавлено: 09.09.2013
Другие материалы по этой песне:
  • Аккорды и текст

Страница создана 09.09.2013
http://primanota.ru/afterhours/tema-la-mia-citta-chords.htm
Привет, Гость.
Предлагаем пройти революционный курс по гитаре.
Подарок от PrimaNota.Ru, забирай!