PrimaNota.ru - самый крупный в мире бесплатный архив песенных текстов, аккордов, табулатур и нот


Afterhours - Riprendere Berlino - таба, видео

Регистрация Запомнить меня
Войти через:  Facebook Google Twitter Vk Yandex Mail.ru

Afterhours - Riprendere Berlino - таба, видео

Печатать
Просмотров: 72
AFTERHOURS: Riprendere Berlino
Tabbed by Dan

Standard Tuning

Intro:
|---------------------------|
|---12p9--10p9--------------|
|---------------11p9--11p9--|
|---------------------------|
|---------------------------|
|---------------------------|
guitar 1 with delay play throughout song, easy to figure out where

|----------------------------------|--------------------------------|
|----------------------------------|--------------------------------|
|----------------------------------|--------------------------------|
|--9-9-9-9-11-11-11-14-13-13-13-13-|--9-9-9-9-11-11-11-13-13-13-13--|
|--7-7-7-7--9--9--9-12-11-11-11-11-|--7-7-7-7--9--9--9-11-11-11-11--|
|--0-0-0-0--0--0--0--0--0--0--0--0-|--0-0-0-0--0--0--0--0--0--0--0--|
rhythm guitar intro/verses       x3                                x1

|-------------------------------|
|-------------------------------|
|-------------------------------|
|------------------9-9-9-9-9-9--|
|--7-7-7-7--9-9-9--7-7-7-7-7-7--|
|--5-5-5-5--7-7-7--0-0-0-0-0-0--|
rhythm guitar chorus (backed by the delay guitar)
repeat as necessary

|----------------------|
|-----10---12----------|
|------9---11--9-------|
|--------------9--9----|
|--0--------------7----|
|-----------------0----|
 played after chorus under bar below (i think this is correct, it's hard to hear)

|----10/12--10----------------------------10/12--10--------------------|
|--------------10/12--10----------------------------10/12--10----------|
|------------------------9/11--9------------------------------9/11--9--|
|---------------------------------9/11--9------------------------------|
|----------------------------------------------------------------------|
|----------------------------------------------------------------------|
guitar 3                play after chorus

|---------------------|
|--14\12\10\9\7-------|
|---------------------|
|---------------------|
|---------------------|
|---------------------|
this fill is played during the second (and third?) verses

|--------------------------------------------------------|
|--------------------------------------------------------|
|-----------------------7h9-7---7--9---------------------|
|---9/7--5---------7/9--------9------------5--7--7/9-----|
|----------9--7-----------------------5h7-------------7--|
|---------------0-------------------0--------------------|
guitar 3 solo  reversed guitar, i've tried my best with it!

|-------------------------------------------------------------------|
|----------------------------------------------10-\---8-8h10-8------|
|-------------------------9--7-----------9-7-9------9----------9----|
|-----5/7--5----5-5/7--/9-------9--7/5------------------------------|
|--7---------7------------------------7-----------------------------|
|-------------------------------------------------------------------|
guitar 3 solo continued

the solo guitar plays something reversed in the 3rd verse but i can't get it, just improv.

no rhythm guitar in 3rd verse

that should be everything. the production is very dense, so it's hard to tell.
any comments, requests or suggestions email me at yellowledbetter_69@hotmail.co.uk
or check my other tabs out.
Добавлено: 16.01.2014
Вам также может быть интересно:
Другие материалы по этой песне:
  • Аккорды и текст

Страница создана 16.01.2014
http://primanota.ru/afterhours/riprendere-berlino-chords.htm
Привет, Гость.
Предлагаем пройти революционный курс по гитаре.
Подарок от PrimaNota.Ru, забирай!