PrimaNota.ru - самый крупный в мире бесплатный архив песенных текстов, аккордов, табулатур и нот


Afterhours - Punto G - текст песни, таба, видео

Регистрация Запомнить меня
Войти через:  Facebook Google Twitter Vk Yandex Mail.ru

Afterhours - Punto G - текст песни, таба, видео

Печатать
Просмотров: 107
Da: fulvio   Dedalus@exploit.it>
ICQ # 36679156
Data: 14-06-1999
TAB: Punto g - Afterhours
Album: Hai paura del buio?


Tune: D-A-D-G-B-E

Intro:

Chitarra 1 (per tutta la strofa):

e--------I----------------I
b--------I----------------I
g--------I----------------I
d--------I----------------I
a------7\I5-5----7-7--9-9-I
D--------I-------7-7--9-9-I

Chitarra 2 (entra dopo 9 secondi):


e-----------------I-----------------I
b-----------------I-----------------I
g-----------------I-----------------I
d-----------------I-----------------I
a-9-9-11-11-9-9-9-I------------12---I
D-9-9-11-11-9-9-9-I------------12---I


A chitarra 2 cambia dopo 52 secondi così:


e-----------------------I-----------------------I
b-----------------------I-----------------------I
g-----------------------I-----------------------I
d-----------------------I-----------------------I
a-9-9-11-11-9-9-9-12-12-I-9-9-11-11-9-9-9-12-12-I
D-9-9-11-11-9-9-9-12-12-I-9-9-11-11-9-9-9-12-12-I
 Nel sogno che mi danno.....

Chorus:

e---------------I---------------I
b---------------I---------------I
g---------------I---------------I
d-7-7-7-7-7-7-7-I-7-7-7-7-7-7-7-I
a-7-7-7-7-7-7-7-I-7-7-7-7-7-7-7-I
D-7-7-7-7-7-7-7-I-7-7-7-7-7-7-7-I
 Non so chi colpire ...


e---------------I---------------I
b---------------I---------------I
g---------------I---------------I
d-5-5-5-5-5-5-5\I12-12-12-12-12-I
a-5-5-5-5-5-5-5\I12-12-12-12-12-I
D-5-5-5-5-5-5-5\I12-12-12-12-12-I
    Perciò non posso agire

Interlude (a 2min e 32 fino a 3min):


e--------------I---------------x-x-x-I
b--------------I---------------x-x-x-I
g--------------I---------------x-x-x-I
d-9-9-9-9------I-9-9-9-9-9-9---x-x-x-I
a-9-9-9-9------I-9-9-9-9-9-9---------I
D-9-9-9-9------I-9-9-9-9-9-9---------I


e--------------I----------------I
b--------------I----------------I
g--------------I----------------I
d-9-9-9-9------I-9-9-9-9-9-9----I
a-9-9-9-9------I-9-9-9-9-9-9----I
D-9-9-9-9------I-9-9-9-9-9-9/---I
 Lo sento su di me...

A 3 min e 15 entra la chitarra 3:

e------------------I---------------I
b------------------I---------------I
g--------7-7-7-7-7-I-9-9-9-9-9-9-9-I
d--------7-7-7-7-7-I-9-9-9-9-9-9-9-I
a--7\5-5-5-5-5-5-5-I-7-7-7-7-7-7-7-I
D------------------I---------------I


e------------------I---------------I
b------------------I---------------I
g--------7-7-7-7-7\I12-12-12-12-12-I
d--------7-7-7-7-7\I12-12-12-12-12-I
a--7\5-5-5-5-5-5-5\I10-10-10-10-10-I
D------------------I---------------I

Poi fino alla fine:

e---------------------I---------------------I
b---------------------I---------------------I
g---------------------I---------------------I
d-9-9-11-11-9-9-12-12-I-9-9-11-11-9-9-12-12-I
a-9-9-11-11-9-9-12-12-I-9-9-11-11-9-9-12-12-I
D-9-9-11-11-9-9-12-12-I-9-9-11-11-9-9-12-12-I
 Sei fratello          nel controllo


/=slide

Testo:

Sei fratello nel controllo
Sei fratello nel controllo
lo sento su di me
qualcosa che so
reale e vero
e ha un cuore nero
Nel sogno che mi danno
trovo la verità
ma prima di parlare
muore suicida

Non so chi colpire
perciò non posso agire

Voglio la facoltà
di non sapere
trovo il mio punto G
voglio il mio punto G
e voglio un'altra stronza
rivoluzione
un orgasmo che mi plachi
ogni reazione

Non so chi colpire
perciò non posso agire

Lo sento su di me
la mia libertà
ha un cuore bianco
come eroina
come eroina
come eroina

Sei fratello nel controllo






     
Добавлено: 21.11.2013
Другие материалы по этой песне:
  • Аккорды и текст

Страница создана 04.04.2012
http://primanota.ru/afterhours/punto-g-chords.htm
Привет, Гость.
Предлагаем пройти революционный курс по гитаре.
Подарок от PrimaNota.Ru, забирай!